Song name
# A B C D E F G H I J K L M N O P Q R S T U V W X Y Z

Jack Penate - No One Lied tab

-------------------------------------------------------------------------------
			     NO ONE LIED — Jack Peρate
-------------------------------------------------------------------------------
Tabbed by: Tom Fitzpatrick
Email: tomfitz26@hotmail.co.uk

Hi, my first tab so go easy on me. Listen to the song for timings.

Effects: Clean sound with reverb
Tuning: Standard

Intro/ Verse
e|---------------------------------------------------------------------------|
B|----------------------9h10p9------------------------------------------————-|
G|--------------------------------9----------------------9/11--4/6---------—-|
D|-----9----6----9/11---------------------6----9----6--------------------6---|
A|--7----4----7------------------------4----7----4----7---------------4------|
E|---------------------------------------------------------------------------|

Chorus
e|----------------------------------4----------------------------------------|
B|----------5---------------------5---5--------------------------------------|
G|--------6---6-----------------6-------6------------------------------------|
D|------7-------7-------------6-----------6----------------------------------|
A|----7-----------7---------4------------------------------------------------|
E|--5---------------5-(x2)-------------------(x2)----------------------------|

e|-----------------------------------4-----------------2---------------------|
B|----------5----------------------5---5-------------3---3-------------------|
G|--------6---6------------------6-------6---------4-------4----------—-6---—|
D|------7-------7--------------6-----------6---—-4-----------4-------7-------|
A|----7-----------7----------4---------------4-2------------------7--------—-|
E|--5---------------5-(x2)--------------------------------------5----------—-|


************************************

| /   slide up
| \   slide down
| h   hammer-on
| p   pull-off
| ~   vibrato
| +   harmonic
| x   Mute note
| b   Bend
| pb  Pre-bend
| br  Bend release
| pbr Pre-bend release
| brb Bend release bend

************************************
Tap to rate this tab
# A B C D E F G H I J K L M N O P Q R S T U V W X Y Z