Guitaretab - guitar tabs
Song name
# A B C D E F G H I J K L M N O P Q R S T U V W X Y Z

Jack Penate - Second Minute Or Hour tab

Second, Minute Or Hour

E---------------------------------------------------------------------|
B---------------------------------------------------------------------|
C---------------------------------------------------------------------|
D----------------------------9-----------------------------------6----|
A-------------9--10--11--------11---------------6--7--8------------8--|
E--------9------------------------------------6-----------------------|

E---------------------------------------------------------------------|
B---------------------------------------------------------------------|
C---------------------------------------------------------------------|
D----------------------------9-----------------------------------6----|
A-------------9--10--11--------11---------------6--7--8------------8--|
E--------9------------------------------------6-----------------------|

E---------------------------------------------------------------------|
B---------------------------------------------------------------------|
C---------------------------------------------------------------------|
D----------------------------9-----------------------------------6----|
A-------------9--10--11--------11---------------6--7--8------------8--|
E--------9------------------------------------6-----------------------|

E----------------------------------------------------------------------------------------------|
B----------------------------------------------------------------------------------------------|
C---------------------------------11--------------11bend a note and back------9----------------|
D--------------9---------------------------------------------------------------------------11--|
A------------------------9---------------------------------------------------------------------|
E---------7------------------------------9-----------------------------------------------------|


C# A#min7 C# Ebmin A#min
C# A#min7 B F# C# x2

Verse 1

Separated and negated, it seems fated
C# A#min7 C# A#min7
We have to find out more
C# A#min7 B F# C#
Do you want me, tell me properly
C# A#min7 C# A#min7
Or just stop me, its you that I adore
C# A#min7 B F# C#

Bridge

F#maj7 Ebmin7
I canít wait, for another second, minute or hour
F#maj7 Ebmin7
I canít wait its all you choice its in your power x2

F# Ab C# F#
I lost my head when I found my heart
F# Ab C# F#
But now with neither Iíve fallen all apart
F# Ab C# F#
With this voice and chord
F# Ab C# F#
Iíll tell you from the start
F# Fmin7 C#
She never wanted me
F# Fmin7 C#
She never wanted me

C# A#min7 C# Ebmin A#min
C# A#min7 B F# C#

Verse 2

I act stupid, due to cupid
My loves rooted youíll have to dig down deep
Mixed emotions, fixed devotions
Your magic potions, you sprinkle as I sleep

Bridge
[ Tab from: http://www.guitaretab.com/j/jack-penate/82386.html ]
F#maj7 Ebmin7
I canít wait, for another second, minute or hour
F#maj7 Ebmin7
I canít wait its all you choice its in your power x2

F# Ab C# F#
I lost my head when I found my heart
F# Ab C# F#
But now with meither Iíve fallen all apart
F# Ab C# F#
With this voice and chord
F# Ab C# F#
Iíll tell you from the start
F# Fmin7 C#
She never wanted me
F# Fmin7 C#
She never wanted me
F# Fmin7 C#
She never wanted me

Middle 8

F# Fmin7 Ebmin7
With you I canít imagine being alone
F# Fmin7 Ebmin7
Without you I can see how much Iíve grown
F# Fmin7 Ebmin7
Cos you made me what I am today
F# Fmin7 Ebmin7
Have you gave me all that I can take

F# Ab C# F#
I lost my head when I found my heart
F# Ab C# F#
But now with meither Iíve fallen all apart
F# Ab C# F#
With this voice and chord
F# Ab C# F#
Iíll tell you from the start
F# Fmin7 C#
She never wanted me
F# Fmin7 C#
She never wanted me
F# Fmin7 C#
She never wanted me
F# Fmin7 C#
She never wanted me


E---------------------------------------------------------------------|
B---------------------------------------------------------------------|
C---------------------------------------------------------------------|
D----------------------------9-----------------------------------6----|
A-------------9--10--11--------11---------------6--7--8------------8--|
E--------9------------------------------------6-----------------------|

E---------------------------------------------------------------------|
B---------------------------------------------------------------------|
C---------------------------------------------------------------------|
D----------------------------9-----------------------------------6----|
A-------------9--10--11--------11---------------6--7--8------------8--|
E--------9------------------------------------6-----------------------|

E---------------------------------------------------------------------|
B---------------------------------------------------------------------|
C---------------------------------------------------------------------|
D----------------------------9-----------------------------------6----|
A-------------9--10--11--------11---------------6--7--8------------8--|
E--------9------------------------------------6-----------------------|

E----------------------------------------------------------------------------------------------|
B----------------------------------------------------------------------------------------------|
C---------------------------------11--------------11bend a note and back------9----------------|
D--------------9---------------------------------------------------------------------------11--|
A------------------------9---------------------------------------------------------------------|
E---------7------------------------------9-----------------------------------------------------|
Related for Second Minute Or Hour tab