Song name
# A B C D E F G H I J K L M N O P Q R S T U V W X Y Z

Jack Powell - Schools tab

(X) Times
(D) DOWN STRUM
(U) UP STRUM

JACK POWELL

SCHOOLS DEMO 1

TABBED BY JACK POWELL

tuned 1/2 step down (Eb, Ab, Db, Gb, Bb, Eb)


INTRO


Eb-------------------------------------------|   INTRO PLAY 3 TIMES 
Bb-------------------------------------------|
Gb-------------------------------------------|
Db---6------------7-----------3--------------|
Ab---6------------7-----------3--------------| 
Eb---3-8X---------5---8X------1-8X-----------|

Eb---------------------------------------------|
Bb---------------------------------------------|
Gb---------------------------------------------|
Db--9------7-----------------------------------|
Ab--9------7-----------------------------------|
Eb--7-4X---5--4x-------------------------------|

VERSE

Eb----------------------------------------------|  PLAY 4 TIMES
Bb----------------------------------------------|
Gb----------------------------------------------|
Db--8-------5--------3--------5-------4---------|
Ab--8-------5--------3--------5-------4---------|
Eb--6--8X---3--8X----1---8X---3--4X---2--4X-----|


CHROUS

Eb---------------------------------------------------------------|
Bb---------------------------------------------------------------|
Gb---------------------------------------------------------------|
Db----------4-4-4-4-X---12-12-12-12-12-12-11---------------------| PLAY 4 TIMES
Ab----------4-4-4-4-X---12-12-12-12-12-12-11---------------------|
Eb----------2-2-2-2-X---10-10-10-10-10-10-9----------------------|
STRUMING    D D D U     D  U  D  D  U  D


BRIDGE


Eb----------------------------------------------------------|
Bb----------------------------------------------------------|
Gb----------------------------------------------------------| PLAY 2 TIMES
Db-4------5-------7------6------5---------------------------|
Ab-4------5-------7------6------5---------------------------|
Eb-2--4X--3--4X---5-4X---4--3X--3--3X-----------------------| 

SOLO RYTHEM

Eb------------------------------------------|
Bb------------------------------------------|
Gb------------------------------------------| PLAY 2 TIMES
Db--12-----11-----9------7-----5------------|
Ab------------------------------------------|
Eb--10-8X--9--8X--7-8X---5-4X--3--4X--------|

Eb-------------------------------------------|
Bb-------------------------------------------|
Gb-------------------------------------------|
Db--16----15-----14------18------16----------|
Ab-------------------------------------------|
Eb--14 8X-13-8X--12-8X---16-2X---14--2X------|

Eb-------------------------------------------|
Bb-------------------------------------------|
Gb-------------------------------------------|
Db--14---------------------------------------|
Ab-------------------------------------------|
Eb-12----1X----------------------------------|

AFTER IVE FINISH THE SONG IL TAB THE FINISED VERSION.
Tap to rate this tab
 
# A B C D E F G H I J K L M N O P Q R S T U V W X Y Z