Song name
# A B C D E F G H I J K L M N O P Q R S T U V W X Y Z

Jack Savoretti - Wonder tab

Tabbed by:whatanoob
Email:kenng_szeto_1993@hotmail.com


Tuning: Standard.
INTRO - (This repeats for awhile.)
e|-------------------------------------|
B|-------------------------------------|
G|------0---0---0---0---0---0----------|
D|-----4-4-4-4-4-4-4-4-2-2-2-2---------|x5
A|----5---5---5---5---3---3------------|
E|-------------------------------------|
Verse+chorus+Outro. ( After he stops picking and starts strumming.)

   G    C-something. Em  D-something.
e|-0-------0----------0------0------------|
B|-0-------1----------0------3------------|
G|-0-------0----------0------0------------|
D|-0-------2----------2------4------------|
A|-2-------3----------2------5------------|
E|-3-------3----------0------5------------|
I'm not gonna decipher the strumming pattern or w/e for you. Don't depend on tabs so 
and learn abit on your own. And he improvises on his chord. I'm just giving you what chords 
improvises on. I'm a lazy one :p

Bridge
    C-something      D-something
e|------0----------------0----------------|
B|------1----------------3----------------|
G|------0----------------0----------------|
D|------2----------------4----------------|
A|------3----------------5----------------|
E|------3----------------5----------------|


It goes, intro, verse, chorus, bridge, verse, outro. :D Ciao.

Anything wrong just comment or w/e. I'll get to it.

| /  slide up
| \  slide down
| h  hammer-on
| p  pull-off
| ~  vibrato
| +  harmonic
| x  Mute note
===============================================================================
Tap to rate this tab
# A B C D E F G H I J K L M N O P Q R S T U V W X Y Z