Song name
# A B C D E F G H I J K L M N O P Q R S T U V W X Y Z

Jack Wall - Suicide Mission tab

 Rythm guitar:
----------------

    H.           E  E     H.           Q       H        E  Q.      
E||--0------------L-----|--------------------|---------------------|
B||------------------1--|--L------------3----|--L--------L---------|
G||---------------------|--------------------|--------------2------|
D||--0------------L-----|--------------------|---------------------|
A||------------------1--|--L------------3----|--L--------L---------|
E||---------------------|--------------------|--------------3------|


  Q.     E  H           Q.     H        E     Q    H.            
---------------------|---------------------|--------------------|
---------0--1--------|--L------3--------L--|--L-----------------|
--L------------------|---------------------|-------2------------|
---------------------|---------------------|--------------------|
---------0--1--------|--L------3--------L--|--L-----------------|
--L------------------|---------------------|--------------------|


  E  H.           E     H.           E  E     H.           E  E   
-----0------------L--|---------------------|---------------1--1--|
---------------------|--3------------L-----|---------------1-----|
--L------------------|--2------------L--3--|--L------------0-----|
---------------------|--0------------L--3--|--L------------------|
---------------------|------------------1--|--L------------3-----|
---------------------|---------------------|---------------------|


  E.  E  E  E.  E  E  E     S E  E  S E  E  E  E.  S  
--0---1--1--0---1--1--0--|--L-1--1--0----1--1--0---1-|
-------------------------|---------------------------|
----------------0--------|------------2--3-----------|
----------------0--------|------------2--3-----------|
-------------------------|------------0--1-----------|
----------------3--------|---------------------------|


  S E  E.  E  E  E.  E  S    S E.  E  E  E.  E  E  S    E  E  E  E.  E  E  E.   
--L-1--0---1--1--0---1--1-|--L-0---1--1--0---1--1--0-|--L--1--1--0---1--1--0---|
--------------------------|--------------------------|-------------------------|
--------------------------|--------0-----------------|-------------------------|
-----------3--------------|--------0-----------------|-----0-------------------|
-----------3--------------|--------------------------|-----0-------------------|
-----------1--------------|--------3-----------------|-------------------------|


skip measures 15-67

  W                   H.           E  E     E  S E  E  E  S E  E  E   
-------------------|---------------------|---------------------------|
-------------------|---------------3-----|-----1-3--------1-3--------|
-------------------|------------------2--|--3-------2--3----7--2--3--|
-------------------|---------------------|---------------------------|
-------------------|---------------------|---------------------------|
-------------------|---------------------|---------------------------|


  S E  E  S S S H           Q.     H        E     E  E  H.            
------------0---1--------|--L------0--------L--|--L------------------|
--1-3---------1----------|---------------------|-----1--3------------|
-------2--3--------------|---------------------|---------------------|
-------------------------|---------------------|---------------------|
-------------------------|---------------------|---------------------|
-------------------------|---------------------|---------------------|


  E  H.           E     W                  
---------------------|-------------------||
--L------------------|-------------------||
---------------------|-------------------||
---------------------|-------------------||
---------------------|-------------------||
---------------------|-------------------||




Lead guitar:
-----------------

starts at measure 15 ends at measure 68

 E  E  E.  E  E  E.  E     E  E.  E  E  E.  E  E     E.  E  E  E.  E  E  E   
-----0---------0--1------|--0--1------0--1------0--|--1------0--1------0--1--|
--3-----6---3---------3--|---------3---------3-----|------3---------3--------|
--7-------------------3--|-------------------5-----|----------------0--------|
--7-------------------3--|-------------------5-----|----------------0--------|
--5-------------------1--|-------------------3-----|-------------------------|
-------------------------|-------------------------|----------------3--------|


  S E  E  S E  E  E  E.  S    S E  E.  E  E  E.  E  S  
--L----0--1-------0--1-----|----0--1------0--1------0-|
----3----------3---------3-|--L--------3---------3----|
------------2--3-----------|--------------------------|
------------2--3-----------|-----------3--------------|
------------0--1-----------|-----------3--------------|
---------------------------|-----------1--------------|


  S E.  E  E  E.  E  E  S    E  E  E  E.  E  E  E.     H        E.  E  S E   
--L-1------0--1------0--1-|--L-----0--1------0--1---|---------------0--0-1--|
--------3---------3-------|-----3---------3---------|--3--------L-----------|
--------0-----------------|-------------------------|--7--------L--------3--|
--------0-----------------|-----0-------------------|--7--------L--------3--|
--------------------------|-----0-------------------|--5--------L--------1--|
--------3-----------------|-------------------------|-----------------------|


  H        S E  S Q       Q.     S E  S Q.        Q.     E   H         
--L----------1--1-3----|--L--------3--3-5------|--L---------10--------|
------------------1----|--L------L-------------|----------------------|
--L--------L------0----|--L------L------0------|--L------2------------|
--L--------L-----------|----------------0------|--L------2---8--------|
--L--------L------3----|--L------L-------------|---------0---8--------|
-----------------------|----------------3------|--L----------6--------|


  E.   E   S  Q.     S  E.     E.  S  H        E.  S    S S H.           E   
------12--12-13------L-13---|--L-----13--------------|----0-----------------|
----------------------------|----------------------6-|--L---3------------L--|
----------------------------|---------0--------L-----|----------------------|
--L-----------3------L------|---------0--------L-----|------0------------L--|
--L-----------3------L------|------------------------|------0------------L--|
--L-----------1------L------|---------3--------L-----|----------------------|


  Q    Q    Q    Q       Q    Q    Q    Q       Q    Q    Q    Q     
----------------------|----------------------|----------------------|
--3----3----3----3----|--3----3----3----3----|--3----3----3----3----|
----------------------|----------------------|----------------------|
----------------------|----------------------|----------------------|
----------------------|----------------------|----------------------|
----------------------|----------------------|----------------------|


  Q    Q    Q    Q       Q    Q    Q    Q       Q    Q    Q    Q     
----------------------|----------------------|----------------------|
----------------------|----------------------|----------------------|
--3----3----3----3----|--3----3----3----3----|--3----3----3----3----|
----------------------|----------------------|----------------------|
----------------------|----------------------|----------------------|
----------------------|----------------------|----------------------|


  Q    Q    Q    Q       Q    Q    Q    Q       Q    Q    Q    Q     
----------------------|----------------------|----------------------|
--1----1----1----1----|--1----1----1----1----|--1----1----1----1----|
----------------------|----------------------|----------------------|
----------------------|----------------------|----------------------|
----------------------|----------------------|----------------------|
----------------------|----------------------|----------------------|


  Q    Q    Q    Q       Q    Q    Q    Q       Q    Q    Q    Q     
----------------------|----------------------|----------------------|
----------------------|----------------------|----------------------|
--0----0----0----0----|--0----0----0----0----|--0----0----0----2----|
----------------------|----------------------|----------------------|
----------------------|----------------------|----------------------|
----------------------|----------------------|----------------------|


  Q    Q    Q    Q       Q    Q    Q    Q       Q    Q    Q    Q     
----------------------|----------------------|----------------------|
----------------------|----------------------|----------------------|
--3----3----3----3----|--3----3--------------|----------------------|
----------------------|------------3----3----|--3----3----3----3----|
----------------------|----------------------|----------------------|
----------------------|----------------------|----------------------|


  Q    Q    Q    Q       Q    Q    H           Q    H.            
----------------------|---------------------|--------------------|
----------------------|---------------------|--------------------|
--0----0----0----0----|--0----0-------------|--------------------|
----------------------|------------0--------|--L-----------------|
----------------------|---------------------|--------------------|
----------------------|---------------------|--------------------|


  Q    Q     H           Q     E   H        E     E   E   H.            
------------10--------|--L----12--13--------L--|--L--13--15------------|
----------------------|------------------------|-----------------------|
----------------------|------------------------|-----------------------|
----------------------|------------------------|-----------------------|
----------------------|------------------------|-----------------------|
----------------------|------------------------|-----------------------|


   S  S  H.            E      H.           E   E     Q.      Q     E   Q     
--13-12-10------------12--|--13------------L--17--|--L------20----17--15----|
--------------------------|-----------------------|-------------------------|
--------------------------|-----------------------|-------------------------|
--------------------------|-----------------------|-------------------------|
--------------------------|-----------------------|-------------------------|
--------------------------|-----------------------|-------------------------|


  H         S  S  Q.        H         H           Q.     H        E   
--L--------13-12-10------|--L---------0--------|--L------------------|
-------------------------|---------------------|---------------------|
-------------------------|---------------------|---------5--------L--|
-------------------------|---------------------|---------------------|
-------------------------|-----------12--------|--L------8--------L--|
-------------------------|-----------10--------|--L------6--------L--|


  Q    H.              E  H.           E     H.           E  E   
--------------------|---------------------|---------------------|
-------3------------|--L------------------|--1------------L-----|
--L----0------------|--L--2------------L--|------------------0--|
--------------------|-----0------------L--|--3------------L-----|
--L----3------------|--L------------------|--1------------L--3--|
--L-----------------|-----3------------L--|------------------1--|


  H.           Q       H        S S Q.        H        Q.     S S  
--------------------|----------------------|----------------------|
--------------------|----------------------|-----------3------3---|
--L------------2----|--L-------------------|-----------2------2-2-|
---------------0----|--L--------3-2-0------|--L--------0------0-2-|
--L-----------------|-----------3-2-0------|--L-----------------0-|
--L------------3----|--L--------1-0--------|----------------------|


  Q    S S Q.     S E.     E.  S Q.     S Q    S    E  S S H.            
------------------------|------------------------|----------------------|
------------------------|------------------------|----------------------|
--L----L-2-3------3-----|--------2------2-0----L-|--L-------------------|
--L----L-2-3------3-3---|--L---3-2------2-0----L-|--L--3-2-0------------|
--L----L-0-1------1-3---|--L---3-0------0--------|-----3-2-0------------|
--------------------1---|--L---1----------3----L-|--L--1-0--------------|


  E  H.           E     H        Q.     E     H.           S S E   
------------------0--|--1--------3------1--|--3------------1-0----|
-----3------------0--|--1--------3------1--|--3------------1-0-3--|
-----2---------------|-----------0---------|--0----------------2--|
--L--0------------2--|--3---------------3--|---------------3-2-0--|
--L------------------|---------------------|----------------------|
---------------------|---------------------|----------------------|

Tablature Legend
----------------
L - tied note
x - dead note
g - grace note
(n) - ghost note
> - accentuded note
NH - natural harmonic
AH - artificial harmonic
TH - tapped harmonic
SH - semi harmonic
PH - pitch harmonic
h - hammer on
p - pull off
b - bend
br - bendRelease
pb - preBend
pbr - preBendRelease
brb - bendReleaseBend
\n/ - tremolo bar dip
\n - tremolo bar dive
-/n - tremolo bar Release up
/n\ - tremolo bar inverted dip
/n - tremolo bar return
-\n - tremolo bar Release down
S - shift slide
s - legato slide
/ -  slide into from below or out of upwards
\ -  slide into from above or out of downwards
~ - vibrato
W - wide vibrato
tr - trill
TP - tremolo picking
T - tapping
S - slap
P - pop
< - fade in
^ - brush up
v - brush down

Duration Legend
---------------
W - whole
H - half
Q - quarter
E - 8th
S - 16th
T - 32nd
X - 64th
. - note dotted
|-n-|  - n-tuplets
Tap to rate this tab
 
# A B C D E F G H I J K L M N O P Q R S T U V W X Y Z