Guitaretab - guitar tabs
Song name
# A B C D E F G H I J K L M N O P Q R S T U V W X Y Z

Jack White - Fly Farm Blues tab

I know Jack plays it in Open A tuning, but I've figured out how to do it in standard (E,A,D,G,B,E)

The chords played in the song are G, A, E, and a few power chords.

Here's the main riff played throughout the song.
E)----------------------|
B)----------------------|
G)----------------------|
D)----------------------|
A)---------5------------|
E)----0-5-7--7----------|


Solo/Heavily Distorted:
E)-----------------------------------------------------------------------|
B)-----------------------------------------------------------------------|
G)--1------------------------1-------------------------------------------|
D)--2---9/14-14-14-14-14-14--2---9/14-14-14-14-14-14-17b-----------------|
A)--2------------------------2-------------------------------------------|
E)--0------------------------0-------------------------------------------|


E)-----------------------------------------------------------------------|
B)--------------------------------------------17-19-17-------------------|
G)--1----------------------14--16b-16-14-16-14--------17-----------------|
D)--2---9/14-14-14-16-16-16--16------------------------------------------|
A)--2--------------------------------------------------------------------|
E)--0--------------------------------------------------------------------|

This part was a little tricky to figure out, but here ya go.
[ Tab from: http://www.guitaretab.com/j/jack-white/219263.html ]
E)--3-2----------------------------2--------------------------------------|
B)--3-2----------------------------2--------------------------------------|
G)--0-2----------------------------2--11-11-11----11-11-------------------|
D)--0-2---16b-16-14----------------2--11-11-11----11-11-------------------|
A)--2-0-------------14-12----------0--11-11-11----11-11-------------------|
E)--3---------------------14-12-10----------------------------------------|


E)---3------------------------------------------------------------------------|
B)---3------------------------------------------------------------------------|
G)---0-1----------1-------------1---------------------------------------------|
D)---0-2----------2-------------2---------------------------------------------|
A)---2-2----------2--------5----2-------------5------------- 9--11-11--14-----|
E)---3-0-0-3-5-3b-0---0-5-7-7---0-0-3-5-3b-5-7-7-3-5-3b--7-7-7--9--9---12-----|


E)--------------------------------------------------------------------------|
B)--------------------------------------------------------------------------|
G)--------------------------------------------------------------------------|
D)--------------------------------------------------------------------------|
A)--7-7------------------3-3-3-5-5-5-6-6-6----5-----5-----5-----------------|
E)--5-5--0-7-0-5-0-4-3b--3-3-3-5-5-5-6-6-6-0-5-7-0-5-7-0-5-7-0--------------|
Related for Fly Farm Blues tab
Fly Farm Blues chords by Jack White