Song name
# A B C D E F G H I J K L M N O P Q R S T U V W X Y Z

Jack White - Sixteen Saltines tab

                          Jack White
                     Sixteen Saltines Solo



e|-12b(14)-12--12p10----10------12-12p10---10-12b(14)-12-----|
B|------------------12-----12~----------12-------------------|
G|-----------------------------------------------------------|
D|-----------------------------------------------------------|
A|-----------------------------------------------------------|
E|-----------------------------------------------------------|

e|-17p15---17b(19)-15-----17p15---15-17-15-------------------|
B|------17---------------------17----------------------------|
G|-----------------------------------------------------------|
D|-----------------------------------------------------------|
A|-----------------------------------------------------------|
E|-----------------------------------------------------------|

There are two guitars that play here:

e|---17b(19)-17b(19)r(17)-17-15~-----------------------------|
B|------------------------__ __------------------------------|
G|------------------------__ __------------------------------|
D|------------------------__ __------------------------------|
A|------------------------__ __------------------------------|
E|------------------------__ __------------------------------|
 |                        __ __notice that notes these line up
 |                        __ __ (Guitar 2 is heard more in the
 |                        __ __  song for the last two notes  )
e|-15b(17)~~~~~~~~~r(15)--15---------------------------------|
B|---------------------------17~-----------------------------|
G|-----------------------------------------------------------|
D|-----------------------------------------------------------|
A|-----------------------------------------------------------|
E|-----------------------------------------------------------|


e|-17b(19)-17b(19)r(17)-17-15~-------------------------------|
B|-----------------------------------------------------------|
G|-----------------------------------------------------------|
D|-----------------------------------------------------------|
A|-----------------------------------------------------------|
E|-----------------------------------------------------------|
 |
 |
 | I'm unsure what Guitar 2 plays here... Could be the same thing though
e|-----------------------------------------------------------|
B|-----------------------------------------------------------|
G|-----------------------------------------------------------|
D|-----------------------------------------------------------|
A|-----------------------------------------------------------|
E|-----------------------------------------------------------|


Both guitars play about the same thing from here on out:

e|--------17b(19)-17b(19)-17b(19)-17p15----------------------|
B|-----------------------------------------------------------|
G|-----------------------------------------------------------|
D|-----------------------------------------------------------|
A|-----------------------------------------------------------|
E|-----------------------------------------------------------|
 |
 |
 |
e|--------17b(19)-17b(19)-17b(19)-17p15----------------------|
B|-----------------------------------------------------------|
G|-----------------------------------------------------------|
D|-----------------------------------------------------------|
A|-----------------------------------------------------------|
E|-----------------------------------------------------------|


e|---------17b(19)-17b(19)-17b(19)-17p15~~~~~----------------|
B|-----------------------------------------------------------|
G|-----------------------------------------------------------|
D|-----------------------------------------------------------|
A|-----------------------------------------------------------|
E|-----------------------------------------------------------|
 |
 |
 |
e|---------17b(19)-17b(19)-17b(19)-17p15~~~~~----------------|
B|-----------------------------------------------------------|
G|-----------------------------------------------------------|
D|-----------------------------------------------------------|
A|-----------------------------------------------------------|
E|-----------------------------------------------------------|
Tap to rate this tab
 
# A B C D E F G H I J K L M N O P Q R S T U V W X Y Z