Song name
# A B C D E F G H I J K L M N O P Q R S T U V W X Y Z

Jack White - Freedom At 21 tab

E----------------\       --------------------|  
B---------------- \      --------------------|
G----------------  \3x   --------------------|
D----------------  /     --------------0----0|
A-2--2-5-2-2----- /      2--2-5-2--2--2--0-2-|
E------------5--0/       ------------3-------|

----------------------------------------------------------------------------|
----------------------------------------------------------------------------|
----------------------------------------------------------------------------|
----0------0------0-----0--------0-------0-----2-------------x-x-x---x-x----|
--2----0-2------2----0-2-------2-----0-2-------2-------------x-x-x---x-x----|
3-------------3--------------3-----------------0-------------x-x-x---x-x----|

---------------------------------------------------------------------|
---------------------------------------------------------------------|
---------------------------------------------------------------------|
-2---------------x-x-x---x-x-x-x-------------------------------------|
-2---------------x-x-x---x-x-x-x-------------------------------------|
-0---------------x-x-x---x-x-x-x-------------------------------------|


Thats about it if you listen to it. If you want more Jack White or the White 
Stripes, just request them. What he does in the solo is he has is Digitech pedal 
an octave up hand he just kind of hits random notes around the 12th fret of the high e string 
Tap to rate this tab
# A B C D E F G H I J K L M N O P Q R S T U V W X Y Z