Song name
# A B C D E F G H I J K L M N O P Q R S T U V W X Y Z

Jack White - Sixteen Saltines tab

#----------------------------------PLEASE NOTE--------------------------------#
#This file is the author's own work and represents their interpretation of the#
#song. You may only use this file for private study, scholarship, or research.#
#-----------------------------------------------------------------------------#
#-- File created with Instab - http://www.pconline.com/~smcarey/instab.html --#
#-----------------------------------------------------------------------------#

Author/Artist: Jasck White
Title: Sixteen Saltines

/ slide up
\ slide down

Standard Tuning

-----|---------------------|--|---------------------------------|-------------|
-----|---------------------|--|---------------------------------|-------------|
-----|-4-4-0-0---2-2-4-4---|--|---5---5---5---5---7---7---7---7-|-------------|
-----|-2-2-x-x---2-2-4-4---|--|-5-5-5-5-5-5-5-5-7-7-7-7-7-7-7-7-|-------------|
-----|-----5-5-------------|--|-3---3---3---3---5---5---5---5---|-------------|
-----|---------------------|--|-x---x---x---x---x---x---x---x---|-------------|
    Verse     m         m

-----|--------------------|--|------------------------------------------------|
-----|--------------------|--|------------------------------------------------|
-----|--------------------|--|------------------------------------------------|
-----|--------------------|--|------------------------------------------------|
-----|-----5-0-------5-7--|--|------------------------------------------------|
-----|-0-3-------5-3------|--|------------------------------------------------|
    Interlude/Chorus

-----|------------------------|-----------------------------------------------|
-----|------------------------|-----------------------------------------------|
-----|------------------------|-----------------------------------------------|
-----|-2--2--2--2--2--2--2--2-|-----------------------------------------------|
-----|-2--2--2--2--2--2--2--2-|-----------------------------------------------|
-----|-x--x--x--x--x--x--x--x-|-----------------------------------------------|
    Bridge

-----|-----------------------------------------------|--|-----------|---------|
-----|-----------------------------------------------|--|-----------|---------|
-----|----------------------------------19-19-19-21\-|--|-0-0--0-0--|---------|
-----|----------17-17-17-19/21-21-21-21--------------|--|-2-2--5-5--|---------|
-----|-19-19-19--------------------------------------|--|-----------|---------|
-----|-----------------------------------------------|--|-----------|---------|
    Bridge/Chorus/End                                     End
Tap to rate this tab
# A B C D E F G H I J K L M N O P Q R S T U V W X Y Z