Song name
# A B C D E F G H I J K L M N O P Q R S T U V W X Y Z

Jack White - Sixteen Saltines tab

This is my very first tab, not all of the song is finished I am still doing the solo I 
do not feel like finishing it at this time. By the end of next week it should be up.
Tuning: Eb, Ab, Db, Gb, Bb, eb


e|-----------------------------------------------------------------------------------|
B|-----------------------------------------------------------------------------------|
G|---------------3-3--5--5----- 6------8---------------------------------------------|
D|-- 3--3--6--6--3-3--5--5--x5- 6-x8---8--x8-----------------------------------------|
A|-- 3--3--6--6--1-1--3--3------4------6---------------------------------------------|
E|-- 1--1--4--4----------------------------------------------------------------------|


e|-----------------------------------------------------------------------------------|
B|-----------------------------------------------------------------------------------|
G|---------------3-3--5--5----- 6------8---------------------------------------------|
D|-- 3--3--6--6--3-3--5--5--x4- 6-x8---8--x8-----------------------------------------|
A|-- 3--3--6--6--1-1--3--3------4------6---------------------------------------------|
E|-- 1--1--4--4----------------------------------------------------------------------|


e|---------------------------------------------------------------------------------|
B|------3-----3--3-5---------------------------------------------------------------|
G|--------4----4-------------------------------------------------------------------|
D|--2-5----------------------------------------------------------------------------|
A|---------------------------------------------------------------------------------|
E|---------------------------------------------------------------------------------|
   ^ Play phrase 5 times

e|-----------------------------------------------------------------------------------|
B|-----------------------------------------------------------------------------------|
G|----6------8-----------------------------------------------------------------------|
D|----6--x8- 8--x8-------------------------------------------------------------------|
A|----4----- 6-----------------------------------------------------------------------|
E|-----------------------------------------------------------------------------------|


e|-----------------------------------------------------------------------------------|
B|-----------------------------------------------------------------------------------|
G|---------------3-3--5--5----- 6------8---------------------------------------------|
D|-- 3--3--6--6--3-3--5--5--x5- 6-x8---8--x8-----------------------------------------|
A|-- 3--3--6--6--1-1--3--3------4------6---------------------------------------------|
E|-- 1--1--4--4----------------------------------------------------------------------|



e|----------------------------------------------------------------------------------|
B|----------------------------------------------------------------------------------|
G|-------------- 3--3--5 -5---------------------------------------------------------|
D|--3-3--6--6---3--3--5--5--x3------------------------------------------------------|
A|--3-3--6--6---1--1--3--3----------------------------------------------------------|
E|--1-1--4--4-----------------------------------------------------------------------|



e|-----------------------------------------------------------------------------------|
B|-----------------------------------------------------------------------------------|
G|---------------3-3--5--5----- 6------8---------------------------------------------|
D|-- 3--3--6--6--3-3--5--5--x4- 6-x8---8--x8-----------------------------------------|
A|-- 3--3--6--6--1-1--3--3------4------6---------------------------------------------|
E|-- 1--1--4--4----------------------------------------------------------------------|


e|---------------6-6-8-8-8-11-11-11-13-13------------------------------------------|
B|--6-6-6-9-9-9--------------------------------------------------------------------|
G|---------------------------------------------------------------------------------|
D|---------------------------------------------------------------------------------|
A|---------------------------------------------------------------------------------|
E|---------------------------------------------------------------------------------|
   ^ Play phrase 3 times
Tap to rate this tab
# A B C D E F G H I J K L M N O P Q R S T U V W X Y Z