Song name
# A B C D E F G H I J K L M N O P Q R S T U V W X Y Z

Jack White - Another Way To Die tab

Intro
E|-----------------------------------------|
B|-----------------------------------------|
G|---------------------------9-9-9-9-9-9---|
D|-----------------------------------------|  x3
A|----------5-----------7------------------|
E|--0-2*--0-----0-2*--0--------------------|
(*very quick bends up to 3rd fret and back) 

E|----------------------------------------------------------------------|
B|----------------------------------------------------------------------|
G|----------------------------------------------------------------------|
D|----------------------------------------------------------------------|  
A|----------------------------------2-----------------------------------|
E|--2-3-5-2-3-5-0--------0-3-0------0--------0-3-0-------0-3-0---0-3-0--|

Pre verse                       (Piano line into verse)
E|-------------------------| E|--------------------------|
B|-------------------------| B|--------------------------|
G|-------------------------| G|--------14-13-------------|
D|-------------------------| D|-----12-------14----------|  
A|-------------------------| A|--14-------------15-14----|
E|---7-----3------0--------| E|--------------------------|

Verse same as Pre Verse

Chorus
E|-------------------------------------|
B|-------------------------------------|
G|-------------------------------------|
D|--9-9-----5-5-----7-7-----7-7--7-7---|  x2
A|--9-9-----5-5-----7-7-----7-7--7-7---|
E|--7-7-----3-3-----5-5-----5-5--5-5---|

E|----------------------------------------|
B|----------------------------------------|
G|---------9-9-9-9------------------------|
D|---------x-x-x-x------------------------|  
A|-2-------7-7-7-7------------------------|
E|-0--------------------0-3-0----0-3-0----|

E|------------------------------------------------------------------------|
B|------------------------------------------------------------------------|
G|-----------------------14-13--------------------------------------------|
D|---------------------12-----14------------------------------------------|  
A|-------------------14---------15-14-------------------------------------|
E|--7-----3-----0-------------------------7-----3-----0-----0-3-0---0-3-0-|

Verse
Chorus

E|-----------------------------------------------------|
B|-----------------------------------------------------|
G|---------------------------------14-13---------------|
D|---------------17-16----------12-------14------------|  
A|-2-------14-17-------17-16-14-------------15-14------|
E|-0---------------------------------------------------|

Break
E|-------------------------------------------------------------------|
B|-------------------------------------------------------------------|
G|-------------------------------------------------------------------|x3
D|--7-7-7-7----------------------------------------------------------|  
A|--------------------------10-9--5--7-7-7-7----------------10-9--7--|
E|-----------5-5-5-5---7-10-------------------0-0-0-0--7-10----------|

E|-------------------------------------------------------------|
B|-------------------------------------------------------------|
G|-------------------------------------------------------------|
D|--7-7-7-7----------------------------------------------------|  
A|--------------------------10-9--5--2-------------------------|
E|-----------5-5-5-5---7-10----------0--------0-3-0---0-3-0----|

Solo
E|----------------------------------------------------|
B|-----15b-15-12------------x-------15----------------|
G|----------------------------14b------14b------------|
D|----------------------------------------------------|  
A|----------------------------------------------------|
E|----------------------------------------------------|

E|--------------------------------------------------------------|
B|---15---------------------------------------------------------|
G|------14b----------12-12-12-12--------------------------------|
D|----------------14--------------14----------------------------|  
A|--------------------------------------------------------------|
E|--------------------------------------/12-14-14-14-14--12-----|

Verse (extra delay guitar bit)
E|-------------|---------------------------------|--------------|
B|-------------|---------------------------------|--------------|
G|-------------|---------------------------------|--------------|
D|-------------|-----------5(5)(5)4(4)(4)4-5-4---|--------------|  
A|-------------|---------------------------------|--------------|
E|--7--3--0----|--7--3--0------------------------|---7--3--0----|

Chorus

E|---------------------------------------------|
B|---------------------------------------------|
G|---------------------------------------------|
D|---------------17-16-------------------------|  
A|-2-------14-17-------17-16-14----------------|
E|-0-------------------------------0-3-0-------|

E|---------------------------------------|
B|---------------------------------------|
G|---------------14-13-------------------|
D|------------12-------14----------------|  
A|-2-------14-------------15-14----------|
E|-0-------------------------------------|

E|-----------------------------------------|
B|-----------------------------------------|
G|---------------------------9-9-9-9-9-9---|
D|-----------------------------------------|  x8
A|----------5-----------7------------------|
E|--0-2*--0-----0-2*--0--------------------|
(*very quick bends up to 3rd fret and back) 

Outro
E|---------------------------------------------|
B|---------------------------------------------|
G|---------------------------------------------|
D|---------------------------------------------|  
A|---------------------------------------------|
E|--2-3-5-2-3-5---------------0-3-0----0-3-0---|




And there you have it, hope that all makes sense.
Ive put a cover of this tab on youtube if you want to check it out:
http://www.youtube.com/watch?
v=o5j8hpR6a7k&lc=3zjcE3s5F95Qq4Vw09WkE80U37jcv01QBIY4JA-qLvQ&feature=inbox
Tap to rate this tab
 
# A B C D E F G H I J K L M N O P Q R S T U V W X Y Z