Song name
# A B C D E F G H I J K L M N O P Q R S T U V W X Y Z

Jack White - High Ball Stepper tab

-------------------------------------------------------------------------------
			     High Ball Stepper - Jack White
-------------------------------------------------------------------------------
Tabbed by: tele.kom
E-mail:

Tuning: Drop D

Part 1
e|-----------------------|
B|-----------------------|
G|-----------------------|
D|-----------------------|
A|-5p3p0-----------------|
D|-------5--3--0---------| 4x

e|-----------------------|
B|-----------------------|
G|-----------------------|
D|-----------------------|
A|-5p3p0-----------------|
D|-------5--3------------|

Part 2
e|---------------------------------|
B|---------------------------------|
G|---------------------------------|
D|---------------------------------|
A|-5-3-5---5-3-5-------------------|
D|---------------5-3-5-5-3---------| 4x

e|---------------------------------|
B|---------------------------------|
G|---------------------------------|
D|---------------------------------|
A|-5-3-5-5-3-5---5-3-5-------------|
D|---------------------5-3---------| 

e|---------------------------------|
B|---------------------------------|
G|---------------------------------|
D|---------------------------------|
A|-5-3-5---5-3-5-------------------|
D|---------------5-3-5-5-3---------| 

e|---------------------------------|
B|---------------------------------|
G|---------------------------------|
D|---------------------------------|
A|-5-3-5---5-3-5-------------------|
D|---------------5-3-0-------------|

Part 3 (Fuzz)

e|---------------------------------------------|
B|---------------------------------------------|
G|---------------------------------------------|
D|---------------------------------------------|
A|-5-3-5---5-3-5---3-5----5-3-5---5-3-5--------|
D|-------0-------0--------------0-------0-3----|

e|---------------------------------------------|
B|--------------------------------------8b10-6-|
G|---------------------------------------------|
D|---------------------------------------------|
A|-5-3-5---5-3-5---3-5----5-3-5---5-3-5--------|
D|-------0-------0--------------0--------------|

e|-----------------------------------------------------------------------|
B|-----------------------------------------------------------------------|
G|-----------------------------------------------------------------------|
D|---------------------------------------------5-5-5-5-5-5-5-5-5-5-5-5-5-|
A|-5-3-5---5-3-5---3-5----5-3-5---5-3-5---3-5--5-5-5-5-5-5-5-5-5-5-5-5-5-|
D|-------0-------0--------------0-------0------5-5-5-5-5-5-5-5-5-5-5-5-5-|

e|-----------------------------------------------------------------------|
B|-----------------------------------------------------------------------|
G|-----------------------------------------------------------------------|
D|---------------------------------------------7-7-7-7-7-7-7-7-7-7-7-7-7-|
A|-5-3-5---5-3-5---3-5----5-3-5---5-3-5---3-5--7-7-7-7-7-7-7-7-7-7-7-7-7-|
D|-------0-------0--------------0-------0------7-7-7-7-7-7-7-7-7-7-7-7-7-|


e|-----------------------------------|
B|-8b10-8b10--10r8p6---6b8r6---------|
G|-------------------7-------7vvv----|
D|-----------------------------------|
A|-----------------------------------|
D|-----------------------------------|

Solo

Typical Jack White improvised solo in D. I'll tab it out later


Then go back to Part 3
Tap to rate this tab
 
# A B C D E F G H I J K L M N O P Q R S T U V W X Y Z