Song name
# A B C D E F G H I J K L M N O P Q R S T U V W X Y Z

Jack White - Lazaretto tab

                                         LAZARETTO - Jack White

Video Lesson: https://www.youtube.com/watch?v=RNd7buPrYEM


Main Riff
e|---------------------------------|
B|---------------------------------|
G|---------------------------------|
D|----4--2------4-2----------4--2--|
A|------------4-----4--------------|
E|-2--------2---------0---2--------|

Chorus
e|---------------------------------|
B|---------------------------------|
G|---------------------------------|
D|-7-----6-6-6-6-6-----------------|
A|-7-----6-6-6-6-6-4h5p4h5p4h5p4h5-|
E|-5-----4-4-4-4-4-----------------| 

Second time around add this little lick before the chorus 
e|----------------|
B|-12b14r12-10----|
G|----------------|
D|-------------14-|
A|----------------|
E|----------------|

Guitar solo
Tab it out later

Breakdown
e|-------------------------------------------------------------|
B|-------------------------------------------------------------|
G|-------------------------------------------------------------|
D|-----------4-2-----------4-2-------------4-2-----------4-2---|
A|---------------4-------------4---------------4-------------4-|
E|-0-1-2-0-2-------0---0-2-------0-1-2-0-2-------0---0-2-------|

e|-----0----|
B|-----0----|
G|-----3----|
D|-----4----|
A|-----4----|
E|-0-1-2-----| 

e|----------------------------|
B|----------------------------|
G|----------------------------|
D|-7-----6--------------------|
A|-7-----6----4h5p4h5p4h5p4h5-|
E|-5-----4--------------------| 

Violin solo

Outro                 
                                   Gradually slow it down
e|----------------------------------------------------------------------------------|
B|----------------------------------------------------------------------------------|
G|----------------------------------------------------------------------------------|
D|-7-----6-----------------------------------------------------------------4-----4--|
A|-7-----6----4h5p4h5p4h5p4h54h5p4h5p4h5p4h54h5p4h5p4h5p4h54h5p4h5p4h5p4h5-4-----4--|
E|-5-----4-----------------------------------------------------------------2-----2--| 
Tap to rate this tab
 
# A B C D E F G H I J K L M N O P Q R S T U V W X Y Z