Song name
# A B C D E F G H I J K L M N O P Q R S T U V W X Y Z

Jack White - Lazaretto tab

-------------------------------------------------------------------------------
			     LAZARETTO - Jack White
-------------------------------------------------------------------------------

Tuning: E Standard

Main riff:
e|----------------------------------------------|
B|----------------------------------------------|
G|----------------------------------------------|
D|-----4--2---------4--2-------------4--2-------|
A|------------------------4---------------------|
E|--2----------0h2-------------0--2-------------|


Refrain:
e|---------------------------------------------------------------------------|
B|---------------------------------------------------------------------------|
G|---------------------------------------------------------------------------|
D|--7------------6-----------------------------------------------------------|
A|--7------------6--------4h5p4h5p4h5p4h5------------------------------------|
E|--5------------4-----------------------------------------------------------|


Bridge (post-solo) riff:  [repeat 7x]               After repeats finish play:
e|----------------------------------------------| |--------------------------|
B|----------------------------------------------| |--------------------------|
G|----------------------------------------------| |--------3-----------------|
D|-----------------4--2----------------4--2-----| |--------4-----------------|
A|-----------------------4-------------------4--| |--------4-----------------|
E|--0--1--2--0--2-----------0----0--2-----------| |--0--1--2-----------------|
    PM PM PM PM PM PM PM PM      PM PM PM PM PM*

*only obey palm mutes when playing the first repeat.


Guitar Solo (in progress):
e|--17b19--17p14-----14-----14--17--X-14-X-14-X-14-17-----------|
B|----------------17----17--------------------------------------|
G|--------------------------------------------------------------|
D|--------------------------------------------------------------|
A|--------------------------------------------------------------|
E|--------------------------------------------------------------|


e|--14------14--------------------------------------------------|
B|------17------17--17b19~br17--13b14-----(continues)-----------|
G|--------------------------------------------------------------|
D|--------------------------------------------------------------|
A|--------------------------------------------------------------|
E|--------------------------------------------------------------|


I think the final sound (played on violin) can be mimicked on guitar if you
start with a full bend on the 9th fret on the G string (to F#) and work from
there.

-------------------------------------------------------------------------------


Order/structure:

0:00  Main riff starts on bass
0:10  Verse
0:21  Main riff starts on guitar
0:42  Refrain
0:48  Verse (bass only?)
1:09  Refrain
1:15  A half length verse (riff played 2x instead of 4)
1:25  Guitar solo
1:46  Refrain

1:57  Bridge riff starts on guitar
2:14  Bridge vocals start
2:30  Bridge riff ending
2:35  Refrain
2:41  Violin solo
3:10  Refrain (but repeat the trill at the end and gradually slow it down)
3:25  Final violin sound

3:39 End


************************************

| h   hammer-on
| p   pull-off
| ~   vibrato
| x   Mute note
| PM  Palm mute
| b   Bend
| pb  Pre-bend
| br  Bend release
| pbr Pre-bend release
| brb Bend release bend

************************************

If you have any corrections please submit them! And if you think there any mistakes 
don't forget to leave a comment with lots of swearing.

I'll add my interpretation of the full solo as soon as I can.
Tap to rate this tab
# A B C D E F G H I J K L M N O P Q R S T U V W X Y Z