Song name
# A B C D E F G H I J K L M N O P Q R S T U V W X Y Z

Jacks Mannequin - Crashin tab

-------------------------------------------------------------------------------
			     Crashin - Jack's Mannequin
-------------------------------------------------------------------------------
Tabbed by:Chris Cioce
Email:ccioce@mail.usf.edu

This is ONLY the introduction! This is also my first tab, but it sound's pretty
accurate. Enjoy.

Tuning: Standard (EADGBe)
Capo: None

Guitar 1: Lead
e|-----------------------------------------------------------------|
B|---5-4-------------------5-4-------------5-4---------------------|
G|-------4-6-8-4-6-8-4-3~ -----4-6-8-4-6~ -----4-6-8-4-6-8-4-3~ ---|
D|-----------------------------------------------------------------|
A|-----------------------------------------------------------------|
E|-----------------------------------------------------------------|

e|---------------------|
B|---5-4---------------|
G|-------8-4-6-8-3~ ---|
D|---------------------|
A|---------------------|
E|---------------------|

Guitar 2: Rhythm
e|---------------------------------------------------------6-h7-6-----|
B|----------------------------------------------------------------7~ -|
G|--------------------------------------------------------------------|
D|--------------------------------------------------------------------|
A|--------------------------------------------------------------------|
E|--------------------------------------------------------------------|


| /  slide up
| \  slide down
| h  hammer-on
| p  pull-off
| ~  vibrato
| +  harmonic
| x  Mute note
===============================================================================
Tap to rate this tab
# A B C D E F G H I J K L M N O P Q R S T U V W X Y Z