Song name
# A B C D E F G H I J K L M N O P Q R S T U V W X Y Z

Jacks Mannequin - Spinning tab

-------------------------------------------------------------------------------
			     Spinning - Jack's Mannequin
-------------------------------------------------------------------------------
Tabbed by:Chris Cioce
Email:ccioce@mail.usf.edu

This is ONLY the introduction! 

Tuning: Standard (EADGBe)


Guitar 1: Lead

e |-----------------------------------------------------------|
B |--9-----9-----9--------------9-----9-----------------------|
G |----8-6---8-6---8-6-11-10-8~ --8-6---8-6---6-8-10-11-10~ --|
D |-----------------------------------------6-----------------|
A |-----------------------------------------------------------|
E |-----------------------------------------------------------|

e |-----------------------------------------------------------|
B |--9-----9-----9--------------9-----9-----------------------|
G |----8-6---8-6---8-6-11-10-8~ --8-6---8-6---5-6-5---5-6-3~ -|
D |-----------------------------------------6-------6---------|
A |-----------------------------------------------------------|
E |-----------------------------------------------------------|


| /  slide up
| \  slide down
| h  hammer-on
| p  pull-off
| ~  vibrato
| +  harmonic
| x  Mute note
===============================================================================
Tap to rate this tab
# A B C D E F G H I J K L M N O P Q R S T U V W X Y Z