Song name
# A B C D E F G H I J K L M N O P Q R S T U V W X Y Z

Jacks Mannequin - Swim tab

-------------------------------------------------------------------------------
                            SWIM [intro] - Jack's Mannequin
-------------------------------------------------------------------------------
Tabbed by: ehudgrl94
Email: artistekh94@yahoo.com

Tuning: Standard (EADGBe)

I noticed there weren't any tabs to the intro of this song (one of my favorites), so I tabbed it.
Might not be 100% accurate but I tabbed it to the best of my ability. Enjoy!
*Note that the "11" is Eleven, not 2 Ones*

e|---------11------10------11-------------8-------------8--------------------|
B|------11----11------11------11-------11---11-------11----------------------|
G|----8----------8-------8-------8---8---------8---8-------------------------|
D|--8------------------------------8-------------8---------------------------|
A|---------------------------------------------------------------------------|
E|---------------------------------------------------------------------------|


************************************

| /   slide up
| \   slide down
| h   hammer-on
| p   pull-off
| ~   vibrato
| +   harmonic
| x   Mute note
| b   Bend
| pb  Pre-bend
| br  Bend release
| pbr Pre-bend release
| brb Bend release bend

************************************
Tap to rate this tab
 
# A B C D E F G H I J K L M N O P Q R S T U V W X Y Z