Song name
# A B C D E F G H I J K L M N O P Q R S T U V W X Y Z

Jacks Mannequin - Mixed Tape tab

-------------------------------------------------------------------------------
			     MIXED TAPE - Bright Eyes
-------------------------------------------------------------------------------
Tabbed by: Backathenet4
Email:boo@oswego.edu

Took me a while to figure it out, pretty sure its 99% correct.
GOOD LUCK!

Tuning: 1/2 step down

Intro/Verse: 

e|---22222--------22222--------22222---------23222-----|
B|---33333--------33333--------33333---------22222-----|
G|---22333--------00000--------00000---------00000-----| x4
D|-0--------------xxxxx--------00000-------2-22222-----|
A|--------------2-22222--------xxxxx---------00000-----|
E|--------------------------3--33333-------------------|


e|-000000---0000---000000---0000---000000---0000---0000000000000000---2222222222222222---|
B|-000222---0030---000222---0030---000222---0030---2222222222222222---2222222222222222---|
G|-000000---2222---000000---2222---000000---2222---0000000000000000---3333333333333333---|
D|-000000---2222---000000---2222---000000---2222---0000000000000000---4444444444444444---|
A|-222222---0000---222222---0000---222222---0000---2222222222222222---4444444444444444---|
E|-333333---0000---333333---0000---333333---0000---3333333333333333---2222222222222222---|

 SWEEP THESE CHORDS FOR 2 MEASURES:

e|---22222--------22222-------2522222---------23222-----|
B|---33333--------33333-------3--3333---------22222-----|
G|---22333--------00000-------0--0000---------00000-----| x2
D|-0--------------xxxxx-------0--0000-------2-22222-----|
A|--------------2-22222-------x--xxxx---------00000-----|
E|--------------------------3--3--3333-------------------|

 Intro/Verse:			   

e|---22222--------22222--------22222---------23222-----|
B|---33333--------33333--------33333---------22222-----|
G|---22333--------00000--------00000---------00000-----| x4
D|-0--------------xxxxx--------00000-------2-22222-----|
A|--------------2-22222--------xxxxx---------00000-----|
E|--------------------------3--33333-------------------|

e|-000000---0000---000000---0000---000000---0000---0000000000000000---2222222222222222---|
B|-000222---0030---000222---0030---000222---0030---2222222222222222---2222222222222222---|
G|-000000---2222---000000---2222---000000---2222---0000000000000000---3333333333333333---|
D|-000000---2222---000000---2222---000000---2222---0000000000000000---4444444444444444---|
A|-222222---0000---222222---0000---222222---0000---2222222222222222---4444444444444444---|
E|-333333---0000---333333---0000---333333---0000---3333333333333333---2222222222222222---|

Bridge:

e|-222222222222222-----------------------------------------3333333333333333---|
B|-344444444444444-----------------------------------------3333333333333333---|
G|-444444444444444---7777777777777777---2222222222222222---4444444444444444---|
D|-444444444444444---7777777777777777---2222222222222222---5555555555555555---|
A|-222222222222222---5555555555555555---0000000000000000---5555555555555555---|
E|-xxxxxxxxxxxxxxx---xxxxxxxxxxxxxxxx---0000000000000000---3333333333333333---|

Outro: SWEEP THESE CHORDS AGAIN

e|---2-2--2----2-2--2-----2-5-2-----232--0-2--2-|
B|---3--3------3--3-------3---------2---------3-|
G|---2---2-----0---2------0---------0---------2-| 
D|-0-----------x----------0-------2-2---------0-|
A|-----------2-2----------x---------0---------0-|
E|----------------------3-3-------------------x-|


Have fun.
My first tab, so let me know what you think.



| /  slide up
| \  slide down
| h  hammer-on
| p  pull-off
| ~  vibrato
| +  harmonic
| x  Mute note
===============================================================================
Tap to rate this tab
# A B C D E F G H I J K L M N O P Q R S T U V W X Y Z