Jackson 5 - Dancing Machine tab

Dancing Machine Guitar Tab 

Intro

e|-----------------------------------------------|
B|-----------------------------------------------|
G|-----------------------------------------------|
D|------44-6----aww baby, do it baby------44-6---|
A|-6-6--22-4--------------------------66--22-4---|
E|-4-4--------------------------------44---------|

Main Riff

e|-------------------------------|
B|-------------------------------|
G|------------4------------------|
D|--6-4--6p4h6---6-6-4--6p4h6--6-| (slight variations of the pattern)
A|-------------------------------|
E|---------------------------7---|

Breakdown

e|-------------------|       
B|-------------------|
G|-------------------|x4
D|-6-9--6------------|
A|--------9-10-11----|
E|----------------7--|

e|-------------------|       
B|-------------------|
G|-------------------|
D|-6-9-------44-6----|
A|------6-6--22-4----|
E|------4-4----------|
Tap to rate this tab
 
# A B C D E F G H I J K L M N O P Q R S T U V W X Y Z