Song name
# A B C D E F G H I J K L M N O P Q R S T U V W X Y Z

Jackson 5 - The Love You Save tab

-------------------------------------------------------------------------------
		                        The Love You Save - The Jackson 5
-------------------------------------------------------------------------------

Tabbed by: milo larkin
Email: 

Tuning: standard

Tricky to hear because the guitar's so quiet but this is pretty much it.

Intro/Break:

e|-----------------|
B|-99-9--5-4-------|
G|-99-9--6-4-------|
D|-99-9--6-4-------|
A|-----------------|
E|-----------------|

Verse:

e|------------------------------------------|
B|------------------------------------------|
G|------------------------------------------|
D|------------------------------------------|
A|--33-3-2-0---55-5-3-2----------23--32-----|
E|------------------------2-23-5--------53--|

Chorus:

     G        Am       Bm      C   Bm Am  G
e|-33333-3--55555-5--77777-7--8-8--77-55-33-|
B|-33333-3--55555-5--77777-7--8-8--77-55-33-|
G|-44444-4--55555-5--77777-7--9-9--77-55-44-|
D|-55555-5--77777-7--99999-9--1010-99-77-55-|
A|------------------------------------------|
E|------------------------------------------|
Tap to rate this tab
# A B C D E F G H I J K L M N O P Q R S T U V W X Y Z