Song name
# A B C D E F G H I J K L M N O P Q R S T U V W X Y Z

Jackson 5 - I Want You Back tab

Jackson Five - I Want You Back

Tabbed by Reice Wood

The tab is "Mostly" the Bassline played on Guitar.
Have fun playing around with it.


Standard Tuning:


~ = let ring/vibrato
/ = slide up
\ = slide down
x = Mute String






E--------------------------------------------------------------------------|
B--------------------------------------------------------------------------|
G--------------------------------------------------------------------------|
D--------------------------------------------------------------------------|  x2
A------------6-8-4-------------6-8-8-----4--------6------------------------|
E-4---4-6-8----------4-6\8~-----------8-----4--6-----4---------------------|



E--------------------------------------------------------------------------|
B--------------------------------------------------------------------------|
G-----------x---x-x--x--xx-xx-x-x-xx--x-xx-x-xx-x-x-x----------------------|
D-----------x---x-x--x--xx-xx-x-x-xx--x-xx-x-xx-x-x-x----------------------|
A-----------11--1111-10-xx-88-x-6-xx--x-xx-x-xx-x-x-6----------------------|
E-0-3-4-0---x---x-x--x--xx-xx-x-x-xx--9-99-8-xx-x-6-x----------------------|




E--------------------------------------------------------------------------|
B--------------------------------------------------------------------------|
G-xx-x-xx--x-xx--xx-x-x-xx---xx-xx-x-x-------------------------------------|
D-xx-x-xx--x-xx--xx-x-x-xx---xx-xx-x-x-------------------------------------|
A-xx-8-88--x-xx--44-x-x-xx---xx-66-x-x-------------------------------------|
E-xx-x-xx--8-xx--xx-x-4-xx-6-xx-xx-x-4-------------------------------------|




E:-------------------------------------------------------------------------|
B:-------------------------------------------------------------------------|
G:-------------------------------------------------------------------------|
D:-------------------------------------------------------------------------| x2
A:----------------------6-8-4-----------6-8-8-----4--------6---------------|
E:-0-3-4-0-4---4---4-6-8--------4-6\8~---------8-----4--6-----4------------|



E:-------------------------------------------------------------------------|
B:-------------------------------------------------------------------------|
G:-------------x---x-x--x-xx-xx-x-x-xx--x-xx-x-xx-xx-x-x-------------------|
D:-------------x---x-x--x-xx-xx-x-x-xx--x-xx-x-xx-xx-x-x-------------------|
A:-------------11--1111-10xx-88-x-6-xx--x-xx-x-xx-xx-x-6-------------------|
E:-0-3-4-0-4---x---x-x--x-xx-xx-x-x-xx--9-99-8-xx-66-x-x-------------------|




E--------------------------------------------------------------------------|
B--------------------------------------------------------------------------|
G-xx-x-xx--x-xx--xx-x-x-xx---xx-xx-x---------------------------------------|
D-xx-x-xx--x-xx--xx-x-x-xx---xx-xx-x---------------------------------------|
A-xx-8-88--x-xx--44-x-x-xx---xx-66-x---------------------------------------|
E-xx-x-xx--8-xx--xx-x-4-xx-6-xx-xx-x---------------------------------------|



E:-------------------------------------------------------------------------|
B:-------------------------------------------------------------------------|
G:-------------------------------------------------------------------------|
D:-------------------------------------------------------------------------| x4
A:-------------------------------------------------------------------------|
E:--0-4-0-4----------------------------------------------------------------|




E--------------------------------------------------------------------------|
B--------------------------------------------------------------------------|
G--------------------------------------------------------------------------|
D--------------------------------------------------------------------------| x2
A------------6-8-4-------------6-8-8-----4--------6------------------------|
E-4---4-6-8----------4-6\8~-----------8-----4--6-----4-----0-3-4-0-4-------|




E:-------------------------------------------------------------------------|
B:-------------------------------------------------------------------------|
G:-x---x-x--x-xx-xx-x-x-xx--x---xx-x-xx-xx-x-x-----------------------------|
D:-x---x-x--x-xx-xx-x-x-xx--x---xx-x-xx-xx-x-x-----------------------------|
A:11--1111-10-xx-88-x-6-xx--x8--xx-x-xx-xx-x-6-----------------------------|
E-:x---x-x--x-xx-xx-x-x-xx--9-9-88-8-xx-66-x-x-----------------------------|



E--------------------------------------------------------------------------|
B--------------------------------------------------------------------------|
G-xx-x-xx--x-xx--xx-x-x-xx---xx-xx-x---------------------------------------|
D-xx-x-xx--x-xx--xx-x-x-xx---xx-xx-x---------------------------------------|
A-xx-8-88--x-xx--44-x-x-xx---xx-66-x---------------------------------------|
E-xx-x-xx--8-xx--xx-x-4-xx-6-xx-xx-x------0-4-0-4--------------------------|



E:-------------------------------------------------------------------------|
B:-------------------------------------------------------------------------|
G:-x---x-x--x-xx-xx-x-x-xx--x-xx-x-xx-xx-x-x-------------------------------|
D:-x---x-x--x-xx-xx-x-x-xx--x-xx-x-xx-xx-x-x-------------------------------|
A:11--1111-10-xx-88-x-6-xx--x-xx-x-xx-xx-x-6-------------------------------|
E-:x---x-x--x-xx-xx-x-x-xx--9-99-8-xx-66-x-x-------------------------------|



E--------------------------------------------------------------------------|
B--------------------------------------------------------------------------|
G-xx-x-xx--x-xx--xx-x-x----------------------------------------------------|
D-xx-x-xx--x-xx--xx-x-x----------------------------------------------------|
A-xx-8-88--x-xx--44-x-x----------------------------------------------------|
E-xx-x-xx--8-xx--xx-x-4----------------------------------------------------|


E:-------------------------------------------------------------------------|
B:-xx99x8-88-xx66x4-4------------------------------------------------------|
G:-xx88x8-88-xx55x3-3------------------------------------------------------|
D:-xx66x6-66-xx33x1-1------------------------------------------------------| x8
A:-xx--x-----xx--x---------------------------------------------------------|
E:-------------------------------------------------------------------------|

E:-------------------------------------------------------------------------|
B:-------------------------------------------------------------------------|
G:-x---x-x--x-xx-xx-x-x-xx--x-xx-x-xx-xx-x-x-------------------------------|
D:-x---x-x--x-xx-xx-x-x-xx--x-xx-x-xx-xx-x-x-------------------------------|
A:11--1111-10-xx-88-x-6-xx--x-xx-x-xx-xx-x-6-------------------------------|
E-:x---x-x--x-xx-xx-x-x-xx--9-99-8-xx-66-x-x-------------------------------|


E:-------------------------------------------------------------------------|
B:-------------------------------------------------------------------------|
G:-xx-x-xx--x-xx--xx-x-x-xx---xx-xx-x-x------------------------------------|
D:-xx-x-xx--x-xx--xx-x-x-xx---xx-xx-x-x------------------------------------|
A:-xx-8-88--x-xx--44-x-x-xx---xx-66-x-x------------------------------------|
E:-xx-x-xx--8-xx--xx-x-4-xx-6-xx-xx-x-4--------0-4-0-4-----0-4-0-4---------|



E:-------------------------------------------------------------------------|
B:-------------------------------------------------------------------------|
G:------------x---x-x--x-xx-xx-x-x-xx--x-xx-x-xx-xx-x-x--------------------|
D:------------x---x-x--x-xx-xx-x-x-xx--x-xx-x-xx-xx-x-x--------------------|
A:------------11--1111-10xx-88-x-6-xx--x-xx-x-xx-xx-x-6--------------------|
E:--0-4-0-4---x---x-x--x-xx-xx-x-x-xx--9-99-8-xx-66-x-x--------------------|




E:-------------------------------------------------------------------------|
B:-------------------------------------------------------------------------|
G:-xx-x-xx--x-xx--xx-x-x-xx---xx-xx-x-x------------------------------------|
D:-xx-x-xx--x-xx--xx-x-x-xx---xx-xx-x-x------------------------------------|
A:-xx-8-88--x-xx--44-x-x-xx---xx-66-x-x------------------------------------|
E:-xx-x-xx--8-xx--xx-x-4-xx-6-xx-xx-x-4--------0-4-0-4-----0-4-0-4---------|


E:-------------------------------------------------------------------------|
B:-------------------------------------------------------------------------|
G:-x---x-x--x-xx-xx-x-x-xx--x---xx-x-xx-xx-x-x-----------------------------|
D:-x---x-x--x-xx-xx-x-x-xx--x---xx-x-xx-xx-x-x-----------------------------|
A:11--1111-10-xx-88-x-6-xx--x8--xx-x-xx-xx-x-6-----------------------------|
E-:x---x-x--x-xx-xx-x-x-xx--9-9-88-8-xx-66-x-x-----------------------------|



E:-------------------------------------------------------------------------|
B:-------------------------------------------------------------------------|
G:-xx-x-xx--x-xx--xx-x-x-xx---xx-xx-x-x------------------------------------|
D:-xx-x-xx--x-xx--xx-x-x-xx---xx-xx-x-x------------------------------------|
A:-xx-8-88--x-xx--44-x-x-xx---xx-66-x-x------------------------------------|
E:-xx-x-xx--8-xx--xx-x-4-xx-6-xx-xx-x-4------------------------------------|
Tap to rate this tab
 
# A B C D E F G H I J K L M N O P Q R S T U V W X Y Z