Song name
# A B C D E F G H I J K L M N O P Q R S T U V W X Y Z

Jackson Alan - Chattahoochie tab

E|--------------------------------------|
B|--------------------------------------|
G|--------------------------------------|
D|--------------------------------------|
A|--2h3-3-2h3-3-2h3----2h3-3-2h3-3-2h3--|
E|--------------------------------------|

E|-----------------------------------|
B|-----------------------------------|
G|-----------------------------------|
D|-----------------------------------|
A|--2h3-3-2h3-3-2h3-3-2h3-3-1---0----|
E|----------------------------3---3--|

E|-----------------------------------|
B|-----------------------------------|
G|-----------------------------------|
D|----------------------------2-5-2--|
A|--2h3-3-2h3-3-2h3-3-2h3-3-5--------|
E|-----------------------------------|

E|----------------------------|
B|----------------------------|
G|----------------------------|
D|----------------------------|
A|--2h3-3-2h3-3-2h3-1---5b-3--|
E|--------------------3-------|

E|-----------------------------------------------------------|
B|-----------------------------------------------------------|
G|----------------------------------5------------------------|
D|----------------------------2-5-7----7---5-7-----5-7-------|
A|--2h3-3-2h3-3-2h3-3-2h3-3-5------------7-----5-7-----5b-3--|
E|-----------------------------------------------------------|
Tap to rate this tab
 
# A B C D E F G H I J K L M N O P Q R S T U V W X Y Z