Guitaretab - guitar tabs
Song name
# A B C D E F G H I J K L M N O P Q R S T U V W X Y Z

Jackson Alan - Livin On Love tab

O.K. I Just Barely Learned This Song My Self And I Tried To Learn It On Line, But There
No Tabs, Just Chords And Some Of You Don't Know All Chords So I Tried As Hard As I Could
Write It Out On A Tab, But I Don't Know If It's Completly Write. I Don't Know The Very 
Intro With All The Single Notes, But You Can Just Play The Part That Is Labeled
And The Play The Part That Sings. If You Know Chords I Put The Words And Chords At The 
With A Section On How To Play The Chords.


Intro
e|---------2------------------|
B|-3---3---3---3---3-------3--|
G|-3---3---2---3---3---3---3--| X2
D|-3---3-------3---3---2---3--|
A|---------------------2------|
E|---------------------0------|

Chorus
e|-------2-----2-----|
B|----3--3--3--3--3--|
G|-1--3--2--3--2--3--|
D|-2--3-----3-----3--| X2
A|-2-----------------|
E|-0-----------------|

Verse 2
e|---------2------------------|
B|-3---3---3---3---3-------3--|
G|-3---3---2---3---3---3---3--| X2
D|-3---3-------3---3---2---3--|
A|---------------------2------|
E|---------------------0------|

Chorus

e|-------2-----2-----|
B|----3--3--3--3--3--|
G|-1--3--2--3--2--3--|
D|-2--3-----3-----3--| X2
A|-2-----------------|
E|-0-----------------|

Chorus
e|-------2-----2-----|
B|----3--3--3--3--3--|
G|-1--3--2--3--2--3--|
D|-2--3-----3-----3--| X2
A|-2-----------------|
E|-0-----------------|

End Riff
e|----------|
B|-3-----3--|
G|-3--1--3--|
D|-3--2--3--|
A|----2-----|
E|----0-----|


____________________________________________________________________________


Chord Graph

     A    D     E
e|-----|--2--|-----|
B|--3--|--3--|-----|
G|--3--|--2--|--1--|
D|--3--|-----|--2--|
A|-----|-----|--2--|
E|-----|-----|--0--|

[ Tab from: http://www.guitaretab.com/j/jackson-alan/8942.html ]
(A)Two young people, without a thing; say some (D)vows and spread their
(A)wings
Settle down with just what they need, livin' on (E)love.
She don't (A)care about what's in style, she just (D)likes the way he
(A)smiles
It takes more than marble and (E)tile, livin' on (A)love.

(Chorus)
Livin' on (E)love, buyin' on (A)time without some(D)body nothin' ain't
worth(A)dime
Just like an (D)old fashioned storybook (A)rhyme, livin' on (E)love.
It sounds (A)simple, that's what you're thinkin';  love can (D)walk
through fire without (A)blinkin'
It doesn't take much when you get (E)enough; livin' on (A)love.

Verse 2
(A)Two old people, without a thing, children(D)gone but still they(A) sing
Side by side on that front porch swing; livin, on(E)love.
He can't(A)see anymore, she can(D)barely sweep the(A)floor
Hand-in-hand they'll walk through that(E)door, just livin' on(A)love.

(Chorus)
Livin' on (E)love, buyin' on (A)time without some(D)body nothin' ain't
worth(A)dime
Just like an (D)old fashioned storybook (A)rhyme, livin' on (E)love.
It sounds (A)simple, that's what you're thinkin';  love can (D)walk
through fire without (A)blinkin'
It doesn't take much when you get (E)enough; livin' on (A)love.

Livin' on (E)love, buyin' on (A)time without some(D)body nothin' ain't
worth(A)dime
Just like an (D)old fashioned storybook (A)rhyme, livin' on (E)love.
It sounds (A)simple, that's what you're thinkin';  love can (D)walk
through fire without (A)blinkin'
It doesn't take much when you get (E)enough; livin' on (A)love.

(A)No, it doesn't take much when you get (E)enough, livin' on(A)love.

Thanks For Reading My Tab And, Good Luck With It. Any Problems Or Complaints E-Mail Nick
At dookie_longview@yahoo.com.
                             !!!!PEACE!!!!
Related for Livin On Love tab
Advertisement will be closed in 10 seconds