Song name
# A B C D E F G H I J K L M N O P Q R S T U V W X Y Z

Jackson Browne - You Love The Thunder tab

Help us improve GuitareTab! Take a short survey!
Artist: Jackson Browne
Song: You Love The Thunder
Album: Running On Empty (1977)                s = slide
Tabbed by: Ross Ledsham

Intro:
    D  >  A     E     B     D  >  A     E     B
E---------5-----------7-----------5-----------7---|
B---7-----5-----9-----7-----7-----5-----9-----7---|
G---7-----6-----9-----8-----7-----6-----9-----8---|
D---7-----7-----9-----9-----7-----7-----9-----9---|
A---5-----7-----7-----9-----5-----7-----7-----9---|
E---------5-----------7-----------5-----------7---|
            E     A   B                   A
E-------------------------------------------------|
B-----------------------------------------2-------|
G-----------1--1--2-s-4-------------------2-------|
D-----------2--2--2-s-4-------------------2-------|
A-----------2--2----------------------------------|
E-------------------------------------------------|
  When you look           over your shoulder...

                    E                B      A
E-------------------------------------------------|
B------------------------------------4------2-----|
G-------------------1----------------4------2-----|
D-------------------2----------------4------2-----|
A-------------------2----------------2------------|
E-------------------------------------------------|
  And you see the life that you've left behind

                     E     A   B    C#m  B   A
E------------------------------------4------------|
B------------------------------------5-------2----|
G--------------------1--1--2-s-4-----6---4-s-2----|
D--------------------2--2--2-s-4-----6---4-s-2----|
A------------------- 2--2------------4------------|
E------------------------------------4------------|
  When you think it over     do you ever wonder?


E--------------5-----------------------7----------5---|
B----------7---5-------------------9---7------7---5---|
G----------7---6-------------------9---8------7---6---|
D----------7---7-------------------9---9------7---7---|
A----------5---7-------------------7---9------5---7---|
E--------------5-----------------------7----------5---|
  What it is that holds your life so close to mine

I could only be bothered to tab the first verse, but most of the rest of the song is 
the same.
Related for You Love The Thunder tab