Song name
# A B C D E F G H I J K L M N O P Q R S T U V W X Y Z

Jackson Browne - Anything Can Happen tab

-------------------------------------------------------------------------------
                             Anything Can Happen - Jackson Browne
-------------------------------------------------------------------------------
Tabbed by: Jocke
E-mail: s@xyr.se

Tuning: Standard

1st riff variation
e|-------------------14------------------------------------------------------|
B|16-16-16---14-14-------12-----------12~------------------------------------|
G|----------------------------11---------------------------------------------|
D|--------------------------------13-----------------------------------------|
A|---------------------------------------------------------------------------|
E|---------------------------------------------------------------------------|


2nd riff variation
e|-------------------14------------------------------------------------------|
B|16-16-16---14-14-------12--------------------------------------------------|
G|----------------------------11---------------------------------------------|
D|--------------------------------11--13~------------------------------------|
A|---------------------------------------------------------------------------|
E|---------------------------------------------------------------------------|


************************************

| /   slide up
| \   slide down
| h   hammer-on
| p   pull-off
| ~   vibrato
| +   harmonic
| x   Mute note
| b   Bend
| pb  Pre-bend
| br  Bend release
| pbr Pre-bend release
| brb Bend release bend

************************************
Tap to rate this tab
# A B C D E F G H I J K L M N O P Q R S T U V W X Y Z