Guitaretab - guitar tabs
Song name
# A B C D E F G H I J K L M N O P Q R S T U V W X Y Z

Jackson C Frank - Yellow Walls chords

Highlighted       Show chord diagrams
Jackson C. Frank  Yellow Walls

Tabbed by: Manuel R.
Guitar #1: EADGBe
Guitar #2: Capo on 3rd fret


Guitar #1: 

||-----------------------------------|
||-----------------------------------|
||-----------------------------------|
||-----------------------------------|
||----1----------1---3---------------|
||-3-----3-1-3-----------------------|

Guitar#1:

                                this is a little variation on 01:22
||-----8------10--10-b-11---||--------------------------------------|
||-10-----10----------------||------46-b-7------4-6-6-b-7----------|
||--------------------------||---5------------5---------------------|
||--------------------------||--------------------------------------|
||--------------------------||--------------------------------------|
||--------------------------||--------------------------------------|

||---10-10-10-10-10----8--8--8--8----7-7-7-7-7----5-5-5-5----5---|
||-12-12-12-12-12----10-10-10-10----8-8-8-8-8----6-6-6-6----3----|
||---------------------------------------------------------------|
||---------------------------------------------------------------|
||---------------------------------------------------------------|
||---------------------------------------------------------------|


Guitar #2 Intro: A, D, A




  D      A           D          A
Yellow walls that shine like silver
              D          
Dark green windows
               E
Stare never closed
              A          D          A        
From yellow walls that shine like silver
              E   A/D/D(11)/D       A        
Through the hands             I choose to hold
[ Tab from: http://www.guitaretab.com/j/jackson-c-frank/191139.html ]
   D         A
Painting nightlight
       D         A
In searching questions
                D
Cannot catch the shadow
        E
That is me
       A
Running naked 
D          A
   And unmentioned
              E   A/D/D(11)  D
Through the death


               A   D A D A
Of a saltless sea  
 D          A
No one knows me
   D      A
In the morning
         D                E
No one sees me go walking by
            A         D        A
And if I listen while no one answers
                    E   A/D/D(11)/D     A        D A D A D A 
The winds can only echo            a goodbye
        D           A
While through your windows
       D           A
And through your walls
             D              E   
I see you made of crystal light
             A          D       A
I see you running and never moving
             E     A/D/D(11)/D          A              
I see you waiting                for my knife

          D      A          D          A
Trhough Yellow walls that shine like silver
              D          
Dark green windows
              E
Stare never closed
                 A          D          A        
Through yellow walls that shine like silver
              E   A/D/D(11)/D       A        
Through the hands             I choose to hold

                   

           E||3
           B||3
 D(11)     G||2
           D||0
           A||x
           E||x


Questions? MSN: koso@quetevalga.com

Visit: http://jacksoncfrank.wordpress.com/
Related for Yellow Walls chords