Song name
# A B C D E F G H I J K L M N O P Q R S T U V W X Y Z

Jackson C Frank - Blues Run The Game tab

I've just tabbed the intro; the verses and the short little interludes between 
them are just variations on the intro - best just to improvise those as you go along! 


Blues Run The Game: Jackson C. Frank

Capo 6

Intro:

e|------------------------3-----------------------------------|
B|----0---------0h1------------------0h3--0----0h1-------1----|
G|----------0----------0-----------------------------0--------|
D|----0-------0---h2-2-------2-------0------0---h2-2------0---|
A|------------------------------------------------------------|
E|-3------3------3-------3--------3------3-----3-------3------|

e|-----------------------------------------3------------------|
B|------1-------------1----------------0h1-----0---------0----|
G|-2-------0--------------0-------------------------0---------|
D|----0-------0-----2--------2-------0--h2---2----0--------0--|
A|------------------------------------------------------------|
E|-3------3------3-------3--------3------3-----3-------3------|


G               C              G        C
Catch a boat to England, baby, maybe to Spain,
G        C            G             C       
Wherever I have gone, wherever I've been and gone,
G        C
Wherever I have gone
    D      C              G
The blues     are all the same.

Send out for whisky, baby, send out for gin,
Me and room service, honey, me and room service, babe,
Me and room service
Well, we're living a life of sin

When I'm not drinking, baby, you are on my mind,
When I'm not sleeping, honey, when I ain't sleeping, mama,
When I'm not sleeping
Well you know you'll find me crying.

Try another city, baby, another town,
Wherever I have gone, wherever I've been and gone,
Wherever I have gone
The blues come following down.

Living is a gamble, baby, loving's much the same,
Wherever I have played, wherever I throw them dice,
Wherever I have played
The blues have run the game.

Maybe tomorrow, honey, someplace down the line,
I'll wake up older, so much older, mama,
Wake up older
And I'll just stop all my trying.

Catch a boat to England, baby, maybe to Spain,
Wherever I have gone, wherever I've been and gone,
Wherever I have gone
The blues are all the same.
Tap to rate this tab
# A B C D E F G H I J K L M N O P Q R S T U V W X Y Z