Jackson C Frank - I Want To Be Alone Dialogue tab

-------------------------------------------------------------------------------
	         I want to be alone (Dialogue) - Jackson C. Frank    
-------------------------------------------------------------------------------
Tabbed by: Mika Juntunen
Email: mika.jun@gmail.com

Tuning: EADGBe
Capo 6th

xxxxxxxxxxxxxxxxxxxxxxxxxxxxxxxxxxxxxxxxxxxxxxxxxxxxxxxxxxxxxxxxxxxxxxxxxxxxxx

 Intro:

e|-5-----5-----0-5-3-0---------0---------0-----------------0-------0---------|
B|---1-----1-----------0h1-------1---0h1---1---0h1---0-1-3---3-------3-------|
G|-----2-----2-------------2-------0---------2-----2-----------4-------4-----|
D|-----------------------------------0h3-------0h3-------5-------------------|
A|-0-----0-----0-0-0-0-------0-----------------------------------0-----------|
E|---------------------------------------------------------------------------|

e|------------------0-----0-----0-----0-----0--------------------------------| 
B|-1-0----1-0---------0-----0-----0-----0------------------------------------|
G|-----0------0---------2-----2-----2-----2----------------------------------|
D|-3-0----3-0----------------------------------------------------------------|
A|-----3------2---0----------------------------------------------------------|
E|---------------------------------------------------------------------------|


xxxxxxxxxxxxxxxxxxxxxxxxxxxxxxxxxxxxxxxxxxxxxxxxxxxxxxxxxxxxxxxxxxxxxxxxxxxxxx

 Verse:

e|-5-----5-----0-5-3-0---------0---------0---------0-------0-------0---------|
B|---1-----1-----------0h1-------1---0h1---1---0h1---1---3---3-------3-------|
G|-----2-----2-------------2-------2---------2---------2-------4-------4-----|
D|-----------------------------------0h3-------0h3-------5-------------------|
A|-0-----0-----0-0-0-0-------0-----------------------------------0-----------|
E|---------------------------------------------------------------------------|

e|---0-------0-------0-------0---------0-------0-------0-------0-------------| 
B|-1---1---1---1-------0-------0---0h1---1-------1---3---3-------3-----------|
G|-------2-------0-2-----2-------0---------2-------2-------4-------4---------|
D|-3-------------------------------0h3---------------5-----------------------|
A|---------0-------0-------0-----------------0---------------0---------------|
E|---------------------------------------------------------------------------|

e|---0-------0------0-----0-----0-----0-----0-----0-----0--------------------|
B|-1---1-------1------0-----0-----0-----0-------0---0-----0------------------|
G|-------2-------0------2-----2-----2-----2---2-------2-----2----------------|
D|-3-------3-----------------------------------------------------------------|
A|-----------------0------0-----0-----0-----0-----0-----0--------------------|
E|---------------------------------------------------------------------------|

And the song goes on continuing this. Obviously there are some variations, but
this is the basic structure.

xxxxxxxxxxxxxxxxxxxxxxxxxxxxxxxxxxxxxxxxxxxxxxxxxxxxxxxxxxxxxxxxxxxxxxxxxxxxxx

 Outro:

e|-5-----5-----0-5-3-0---------0---------0---------0-------0---------0-------|
B|---1-----1-----------0h1-------1---0h1---1---0h1---0-1-3---3---0h3---3-----|
G|-----2-----2-------------2-------0---------2-----------------4---------4---|
D|-----------------------------------0h3-------0h3---3-3-5-------0h5---------|
A|-0-----0-----0-0-0-0-------0-----------------------------------------------|
E|---------------------------------------------------------------------------|

                                                              
e|---------------------------------------------------------------------------|
B|-1-0----1-0----------------------------------------------------------------|
G|-----0------0--2-----------------------------------------------------------|
D|-3-0----3-0----------------------------------------------------------------|
A|-----3------2--0-----------------------------------------------------------|
E|---------------------------------------------------------------------------|
                                                               
xxxxxxxxxxxxxxxxxxxxxxxxxxxxxxxxxxxxxxxxxxxxxxxxxxxxxxxxxxxxxxxxxxxxxxxxxxxxxx


| /  slide up
| \  slide down
| h  hammer-on
| p  pull-off
| ~  vibrato
| +  harmonic
| x  Mute note
===============================================================================
Tap to rate this tab
 
# A B C D E F G H I J K L M N O P Q R S T U V W X Y Z