Song name
# A B C D E F G H I J K L M N O P Q R S T U V W X Y Z

Jackson C Frank - Tumble In The Wind tab

-------------------------------------------------------------------------------
                        Tumble In The Wind - Jackson C. Frank
-------------------------------------------------------------------------------
Tabbed by: Gavjones

The chords are already out there but I thought some people might find it useful
to get an idea of the picking pattern. This is just the first verse, there are
slight variations in the others.

Tuning: Standard
Capo on 3

Intro

   G           C 
e|--------------------------|
B|-----0----------1---------|
G|---0----------0-----------|
D|----0---x4-----2---x4-----|
A|--------------------------|
E|--3----------3------------|

Verse
    G   Gmaj7  Em         C   Cmaj7 G              Gmaj7  Em
e|-------------------------------------------------------------------------|
B|-----0----0----0----0-----1----0----0----0-----0----0----0----0----------|
G|---0----0----0----0-----0----0----0----0-----0----0----0----0------------|
D|----0----0----2----2-----2----2----0----0-----0----0----2----2-----------|
A|-----------------------3----3--------------------------------------------|
E|--3----2----0----0---------------3----3-----3----2----0----0-------------|

    C         D          Cmaj7       G              Gmaj7   Em
e|---------------------------------------------------------------------------|
B|-----1------3----3------0-----0----0----0----0----0----0----0----0---------|
G|---0----0-----2----2------0-----0----0----0-----0----0----0----0-----------|
D|----2----2-----0----0------2-----2----0----0-----0----0----2----2----------|
A|--3----3-----0----0------3-----3-------------------------------------------|
E|------------------------------------3----3-----3----2----0----0------------|

   G    Gmaj7  Em       D          Cmaj7  
e|---------------------------------------------------------------------------|
B|-----0----0----0------3----3-----0-----0-----0----0------------------------|
G|---0----0----0----0-----2----2-----0-----0-----0----0----------------------|
D|----0----0----2----2-----0----0-----2-----2-----2----2---------------------|
A|-----------------------0----0-----3-----3-----3----3-----------------------|
E|--3----2----0----0---------------------------------------------------------|


************************************

| /   slide up
| \   slide down
| h   hammer-on
| p   pull-off
| ~   vibrato
| +   harmonic
| x   Mute note
| b   Bend
| pb  Pre-bend
| br  Bend release
| pbr Pre-bend release
| brb Bend release bend

************************************
Tap to rate this tab
# A B C D E F G H I J K L M N O P Q R S T U V W X Y Z