Song name
# A B C D E F G H I J K L M N O P Q R S T U V W X Y Z

Jackson Harris - Go Crazy tab

----------------------------------------------------------------
Go Crazy - Jackson Harris
-----------------------------------------------------------------
Tabbed by: Aleene
Email: aleene@hotmail.co.uk
Tuning: Drop D


Chords (aka acoustic version);

Intro: G
The rest; G, D, Em, C



The way I play it;


   intro

E|------------------------------------------------------------|
B|------------------------------------------------------------|
G|--------------------------7--7----------------5--5----------|
D|-5----5---------5--5------7--7------2--2------5--5----------|
A|-5-x8-5---------5--5------5--5------2--2------3--3----------|
D|-5----5---------5--5----------------2--2--------------------|


Chorus and verse;

Palm Mute all, except for first of each 12.

E|---------------------------------------------------------|
B|---------------------------------------------------------|
G|----------7----------------5-----------------------------|
D|-5--------7-x12---2--------5-x12-------------------------|
A|-5-x12----5-------2-x12----3-----------------------------|
D|-5----------------2--------------------------------------|

Optional slide

E|----------------------------------------------------|
B|----------------------------------------------------|
G|----------7------7-/-9-\-7----------5---------------|
D|-5--------7-x12--7-/-9-\-7---2------5--x12----------|
A|-5-x12----5------5-/-7-\-5---2-x12--3---------------|
D|-5---------------------------2----------------------|



Check me on facebook optional part

E|----------------------------------------------------------------|
B|----------------------------------------------------------------|
G|------------------------5---------------------------------------|
D|-5-------5-------2------5-x12-----------------------------------|
A|-5-x12---5--x12--2-x12--3---------------------------------------|
D|-5-------4-------2----------------------------------------------|


Optional chord change

E|----------------------------------------------------------------|
B|----------------------------------------------------------------|
G|-------------------------5--------------------------------------|
D|-5-------0-------2-------5-x12----------------------------------|
A|-5-x12---0-x12---2-x12---3--------------------------------------|
D|-5-------0-------2----------------------------------------------|

Not sure if he's "signed" but here's his website, he has albums out.
http://thejacksonharris.com/
Tap to rate this tab
 
# A B C D E F G H I J K L M N O P Q R S T U V W X Y Z