Song name
# A B C D E F G H I J K L M N O P Q R S T U V W X Y Z

Jackson Jackson - Waxed World tab

----------------------------------------------------------------------------
                             Waxed World - Jackson Jackson
----------------------------------------------------------------------------
Tabbed by:Lachierigg
Email:Lachierigg@hotmail.com
Just the intro and chord sequence to a great song by Jackson Jackson.

Tuning:Standard

    Am          Am/G       Am/F#       G*
e|--0-----0--|--0-----0--|-----------|-----------|
B|-----1-----|-----1-----|--------3--|--0--------|
G|-----------|-----------|--2--2-----|-----0--0--|
D|-----------|-----------|-----------|-----------|
A|--0--------|-----------|-----------|-----------|
E|-----------|--3--------|--2--------|--3--------|

e|--0-----0--|--0-----0--|-----------|-----------|
B|-----1-----|-----1-----|--------3--|--0--1--3--|
G|-----------|-----------|--2--2-----|-----------|
D|-----------|-----------|-----------|-----------|
A|--0--------|-----------|-----------|-----------|
E|-----------|--3--------|--2--------|--3--------|

Am Am/G Am/F# G*

*G can be played with third finger on E string playing G bass note and open for other strings.

For the rest of the song, including when the horns come in for the punching fanfare, the 
same chords are repeated, but strumming sounds more appropriate and closer to the recording.
Tap to rate this tab
 
# A B C D E F G H I J K L M N O P Q R S T U V W X Y Z