Song name
# A B C D E F G H I J K L M N O P Q R S T U V W X Y Z

Jackson United - Trigger Happy tab

Jackson United - Trigger Happy [Harmony And Dissidence 2008]

Tabbed by: Johnny_Napalm (on bbs.jacksonunited.com)
email: andras_fazekas@freemail.hu

www.jacksonunited.com
bbs.jacksonunited.com
whiteflag.x4host.eu

------------------------------------------
Intro 1/2

Guitar 1:

e|3-3-3-3-3-3-3-3---3-3-3-3-3-3-3-3--------------------------------------|
B|3-3-3-3-3-3-3-3---3-3-3-3-3-3-3-3--------------------------------------|
G|------------------------------------4-4-4-4-4-4-4-4-4-4-4-4-4-4-4-4-4-4|
D|------------------2-2-2-2-2-2-2-2---4-4-4-4-4-4-4-4-4-4-4-4-4-4-4-4-4-4|
A|2-2-2-2-2-2-2-2---2-2-2-2-2-2-2-2---2-2-2-2-2-2-2-2-2-2-2-2-2-2-2-2-2-2|
E|3-3-3-3-3-3-3-3---0-0-0-0-0-0-0-0--------------------------------------|

------------------------------------------
Intro 2/2

Guitar 1:

e|3-3-3-3-3-3-3-3---3-3-3-3-3-3-3-3--------------------------------------|
B|3-3-3-3-3-3-3-3---3-3-3-3-3-3-3-3--------------------------------------|
G|------------------------------------4-4-4-4-4-4-4-4-4-4-4-4-4-4-4-4-4-4|
D|------------------2-2-2-2-2-2-2-2---4-4-4-4-4-4-4-4-4-4-4-4-4-4-4-4-4-4|
A|2-2-2-2-2-2-2-2---2-2-2-2-2-2-2-2---2-2-2-2-2-2-2-2-2-2-2-2-2-2-2-2-2-2|
E|3-3-3-3-3-3-3-3---0-0-0-0-0-0-0-0--------------------------------------|


Guitar 2:

e|-----------------------------------------------------------------------|
B|-----------------------------------------------------------------------|
G|-----------------------------------------------------------------------|
D|-----------------------------------------------------------------------|
A|9/5----------5/2----------2/9------------------------------------------|
E|-----------------------------------------------------------------------|

Tap to rate this tab
 
# A B C D E F G H I J K L M N O P Q R S T U V W X Y Z