Song name
# A B C D E F G H I J K L M N O P Q R S T U V W X Y Z

Jackyl - Lumberjack tab

-------------------------------------------------------------------------------
			     The Lumberjack - Jackyl
-------------------------------------------------------------------------------
Tabbed by:dillon1022
Email:dillon1022@hughes.net

Tuning:standard

This is without a doubt the coolest rock song ever written
from the nice bluesy riff to the unforgettable chainsaw solo

intro      
e|--------||----------------------|
B|--------||----------------------| x4
G|--------||----------------------|
D|--------||-2--2-4--4-2--2-4-4-4-|
A|--------||-0--0-0--0-0--0-0-0-0-|
E|-2-/-12-||----------------------|

verse
e|---------------------|---|---------------------|---|--------------------|
B|---------------------|-x4|---------------------|-x2|--------------------|x2
G|---------------------|---|2--2-4--4-2--2-4-4-4-|---|--------------------|
D|2--2-4--4-2--2-4-4-4-|---|0--0-0--0-0--0-0-0-0-|---|2--2-4--4-2--2-4-4-4|
A|0--0-0--0-0--0-0-0-0-|---|---------------------|---|0--0-0--0-0--0-0-0-0|
E|---------------------|---|---------------------|---|--------------------|

bridge
e|---|----|---|----|---|---|---|---|---|---|---------|
B|---|-x14|---|-x14|---|-x7|---|-x7|---|-x3|---------|
G|---|----|---|----|---|---|---|---|---|---|---------|
D|-9-|----|-7-|----|-9-|---|-7-|---|-9-|---|-9-8-7-7-|
A|-7-|----|-5-|----|-7-|---|-5-|---|-7-|---|-7-6-5-5-|
E|-0-|----|---|----|-0-|---|---|---|-0-|---|-0-0-0-0-|

lead over second verse
e|--------------5~~|-7b----5-9-7-5~~-|
B|------------5----|-----------------|
G|-10b----7-9------|-----------------|
D|-----------------|-----------------|
A|-----------------|-----------------|
E|-----------------|-----------------|

outro
e|-----------------------------|
B|-----------------------------|
G|-----------------------------|
D|-7-9-9-7-9-9-7-9-9-7-9-9-7-7-|
A|-5-7-7-5-7-7-5-7-7-5-7-7-5-5-|
E|---0-0---0-0---0-0---0-0-----|

the chainsaw solo just consists of revving the engine
the high sounds you here are full revs (trigger all the way down)
the low sounds are half revs (trigger half-way down)


************************************

| /   slide up
| ~   vibrato
| b   Bend

************************************
Tap to rate this tab
# A B C D E F G H I J K L M N O P Q R S T U V W X Y Z