Song name
# A B C D E F G H I J K L M N O P Q R S T U V W X Y Z

Jackyl - When Will It Rain tab

Tuning: Standard

This is a rough idea of the lay out of the song, just listen for the picking patterns.

Intro/verse

e|-----------------------------------------------------------------------------|
B|-----------------------------------------------------------------------------|
G|----7-----7---------7-----7---------7-----7---------7-----7---------7--------|
D|----7-----7---------7-----7---------7-----7---------7-----7---------7--------|
A|----5-5-5-5-5-5-5-5-5-5-5-5-5-5-5-5-5-5-5-5-5-5-5-5-5-5-5-5-5-5-5-5-5--------|
E|-----------------------------------------------------------------------------|
pm      . .   . . . .   . .   . . . .   . .   . . . .   . .    . . . .
e|--------------------------------------------------------------------------|
B|--------------------------------------------------------------------------|
G|--7-----7---------7-----------------------------7---------7---------------|
D|--7-----7---------7-----------------------------7---------7---------------|
A|--5-5-5-5-5-5-5-5-5-5-5------2h3p2h3p0----------5-5-5-5-5-5-5-5-----------|
E|--------------------------------------------------------------------------|
pm    . .   . . . .   . .                           . . . .   . .

Pre-Chorus
e|---------------------------------------------------------------------------|
B|---------------------------------------------------------------------------|
G|---5------------5-7-------7-------7-7---5-----3----5-5-5-5-----------------|
D|---5------------5-7-------7-------7-7---5-----3----5-5-5-5-----------------|
A|---3------------3-5-5-5-5-5-5-5-5-5-5---3-----1----3-3-3-3-----------------|
E|---------------------------------------------------------------------------|

Chorus
e|--------------------------------------------------------------------------|
B|--------------------------------------------------------------------------|
G|--7-7-7--------------5---5-5--3-3-3-5-5-5---------------------------------|
D|--7-7-7--------------5---5-5--3-3-3-5-5-5---------------------------------|
A|--5-5-5--------------3---3-3--1-1-1-3-3-3---------------------------------|
E|--------------------------------------------------------------------------|

Bridge post Solo
e|---------------------------------------------------------------------------|
B|---------------------------------------------------------------------------|
G|--7-------7----------7-----------------------------------------------------|
D|--7-------7----6-5-3-7-----------------------------------------------------|
A|--5-5-5-5-5----6-5-3-5-----------------------------------------------------|
E|---------------4-3-1-------------------------------------------------------|
verse
Chorus
then solo
chorus
verse
end
Tap to rate this tab
# A B C D E F G H I J K L M N O P Q R S T U V W X Y Z