Song name
# A B C D E F G H I J K L M N O P Q R S T U V W X Y Z

Jackyl - Lumberjack tab

tuning-standard

ive seen one way to play this song and it's wrong, this won't be perfect, but this will 
you an idea of how the song really should go

e----------------------------------|
B----------------------------------|
G----------------------------------|
D--2----2--4----4--2----2--4----4--|
A--0----0--0----0--0----0--0----0--| riff 1
E----------------------------------|

e----------------------------------|
B----------------------------------|
G--2----2--4----4--2----2--4----4--|
D--0----0--0----0--0----0--0----0--|
A----------------------------------| riff 2
E----------------------------------|

e------------------------------------------------------|
B------------------------------------------------------|
G------------------------------------------------------|
D-9-9-9-9-9-9-9-9-9-9-9-9--7-7-7-7-7-7-7-7-7-7-7-7-----|
A-7-7-7-7-7-7-7-7-7-7-7-7--5-5-5-5-5-5-5-5-5-5-5-5-----| riff 3
E-0-0-0-0-0-0-0-0-0-0-0-0------------------------------|

the solo is played by that chain saw, and i dont know it on the guitar

lyrics:
I was born in the backwoods
Of a two-bit nowhere town
Fathered up some rock 'n' roll (baby)
So you muthers could boogie down
I ain't whistling dixie
No I'm a rebel with a groove
All around the world the ygo 'round and 'round
When they dig on my new stainless steel sound

CHORUS
I'm a lumberjack baby
I'm gonna cut you down to size
I'm a lumberjack baby
And you're the one that gets my prize
And when you hear my motor running
You know I surely be coppin' a rise
So I'm gonna crank it up and cut it down

I'm a lumberjack baby
I'm a lumberjack now baby
I'm a lumberjack baby
I'm a lumberjack baby
But I ain't jacked my lumber baby
Since my chain saw you
Tap to rate this tab
# A B C D E F G H I J K L M N O P Q R S T U V W X Y Z