Song name
# A B C D E F G H I J K L M N O P Q R S T U V W X Y Z

Jackyl - She Loves My Cock tab

Help us improve GuitareTab! Take a short survey!
-------------------------------------------------------------------------------
                   SHE LOVES MY COCK - JACKYL
-------------------------------------------------------------------------------

Tabbed by: tim2dope
Email: tfw122000@yahoo.com

Tuning: Standard

e|--0-0-0-0-0-0-0-----------------0-|
B|--5-5-5-3-0-0-0---------------3---|
G|----------------2p0---------1-----|
D|--------------------2-----0-------|
A|------------------------2---------|
E|----------------------0-----------|
Related for She Loves My Cock tab