Guitaretab - guitar tabs
Song name
# A B C D E F G H I J K L M N O P Q R S T U V W X Y Z

Jackyl - Redneck Punk tab

Key:
h=hammer-on
p=pull-off
/=slide up
\=slide down
m=palm mute


Intro:
e -----
b -----
g 4--2-
d 4--2-
a 2--0-
E -----

Verse:
e ----------------------------------------|
b ----------------------------------------|
g ----------------------------------------|
d ------------------------2p0---------2p0-|
a ----------------------------2p0---------|
E 0-0-0-00-00023--0-0-0-0---------3p0-----|
  m m m mm mmm    m m m m
[ Tab from: http://www.guitaretab.com/j/jackyl/68351.html ]
Chorus:
e --22---22-----------------------------------22-------------------|
b --33---33-----------------------------------33-------------------|
g 4-22-4-22---------------------------------4-22-4--4-5-4-5-4-5-7--|
d 4-00-4-00-2-0h2-0h20h20h2-2-0h2-0h20h20h2-4-00-4--4-5-4-5-4-5-7--|
a 2----2----2-0h2-0h20h20h2-2-0h2-0h20h20h2-2----2--2-3-2-3-2-3-5--|
E -----------------------------------------------------------------|


Bridge:
e ----------------              Sorry, no solo. I'm only 13--------|
b -----------------------------------------------------------------|              
g -----------------------------------------------------------------|              
d 2---2---5---2---              Transposed by Ben Taber   1/28/06--|
a 2---2---5---2----------------------------------------------------|
E 0---0---3---0----------------------------------------------------|
Just listen to the Chainsaw CD and put in a few slides here and there.
Related for Redneck Punk tab