Song name
# A B C D E F G H I J K L M N O P Q R S T U V W X Y Z

Jackyl - Dirty Little Mind tab

easy kick ass song!! just listen for timing


Intro:
e|----------------------------3-----------------|
b|----------------------------3-----------------|
g|----7~~~~7--5---------------0-----------------|
d|--------------8--5~~~~------0-----------------|
a|----------------------------2-----------------|
E|----------------------------3-----------------|

  Bass line

  Verse 1: "well i licked her clean..."
e|-----------------1----------------------------|
b|-----------------1----------------------------|
g|----------------------------------3h4h3h4-----|
d|-----------------------------------------5~~--|
a|------10/-----------0--1h2h1h2----------------|
E|-------------1----------------3---------------|

  Verse 2: Palm mute " the way she walks..."
e|--------------------------------------|
b|--------------------------------------|
g|--------------------------------------|
d|--------------------------------------|
a|--------------------------------------|
E|---3333333333333333333333333333333333-|

  Repeat verse 1:

  Verse 3:Chorus " She's got a DIRTY! Dirty Little Mind"
e|---------------------------------------------------------3-|
b|---------------------------------------------------------3-|
g|----------------------------3h4h3h4---------------3h4h3h4--|
d|-----------------------------------5-----------------------|
a|333333333-etc------1h2h1h2--------------1h2h1h2------------|
E|111111111-----------------3--------------------3-----------|

  Repeat Verse 2:
      Then
  Repeat Verse 3:
Tap to rate this tab
# A B C D E F G H I J K L M N O P Q R S T U V W X Y Z