Song name
# A B C D E F G H I J K L M N O P Q R S T U V W X Y Z

Jacqueline Schwab - Battle Cry Of Freedom tab

-------------------------------------------------------------------------------
		Battle Cry of Freedom- Jaqueline Schwab
-------------------------------------------------------------------------------
Tuning: Standard

e|-------------------------------------------------------------------------|
B|-------0-0-0----------------------------------------0--------------------|
G|--0-2--------2-0--------0-0-0-------------------0-2---2------------------|
D|--------------------2-4-------4-2----0-0------0--------------------------|
A|------------------------------------------3-2----------------------------|
E|-------------------------------------------------------------------------|

e|-------------------------------------------------------------------------|
B|------0-0-0---------------------------------0----------------------------|
G|--0-2-------2-0-----0-0-0-----------------0---2--0-----------------------|
D|----------------2-4-------4-2---0-0-----0--------------------------------|
A|------------------------------------3-2----------------------------------|
E|-------------------------------------------------------------------------|

Bridge:
e|-------------------------------------------------------------------------|
B|---3-3-0-1-3-5---3-3-0-1-3--3-0-1-3-5--3-3-0-----------------------------|
G|---------------------------------------------0-2-------------------------|
D|-------------------------------------------------------------------------|
A|-------------------------------------------------------------------------|
E|-------------------------------------------------------------------------|


e|-------------------------------------------------------------------------|
B|------0-0-0--------------------------------0-----------------------------|
G|--0-2-------2-0-----0-0-0----------------0---2---0-----------------------|
D|----------------0-2-------4-2--0-0-----0---------------------------------|
A|-----------------------------------3-2-----------------------------------|
E|-------------------------------------------------------------------------|



| /  slide up
| \  slide down
| h  hammer-on
| p  pull-off
| ~  vibrato
| +  harmonic
| x  Mute note
===============================================================================

http://www.jacquelineschwab.com/ 
Tap to rate this tab
# A B C D E F G H I J K L M N O P Q R S T U V W X Y Z