Song name
# A B C D E F G H I J K L M N O P Q R S T U V W X Y Z

Jacques Offenbach - Can Can tab

Can Can - Jacques Offenbach

I tabbed this 'song' because the other tabs on UG wheren't very good.(Not your fault, UG ;))
If you have any comments, well, there's the comment page for.

By T.K. 

e|---------------0--0--0-2---------------------5-4-2-0------------|
B|-------0-3-2-0-----------2-3-0--0--0-3-2-0-----------3-2-0------|
G|--2----------------------------------------2---------------2----|
D|----------------------------------------------------------------|
A|----------------------------------------------------------------|
E|----------------------------------------------------------------|

e|----------0--0--0-2---------------------0-----------------------|
B|--0-3-2-0-----------2-3-0--0--0-3-2-0-----0-2-------------------|
G|--------------------------------------2-------2-----------------|
D|----------------------------------------------------------------|
A|----------------------------------------------------------------|
E|----------------------------------------------------------------|

e|--0-----------------2-5-2-2-0-0---2-----2-0---------------------|
B|----0-0-2-0-----2-3-----------------0-0---------2-2-0-2-0-2-0-0-| 
G|------------2-2-----------------------------2-2-----------------|
D|----------------------------------------------------------------|
A|----------------------------------------------------------------|
E|----------------------------------------------------------------|

e|--0-----------------2-5-2-2-0-0---2-----2-0---------------------|
B|----0-0-2-0-----2-3-----------------0-0---------2-2-0-2-0-------| 
G|------------2-2-----------------------------2-2-----------2-----|
D|----------------------------------------------------------------|
A|----------------------------------------------------------------|
E|----------------------------------------------------------------|

e|----------------0-----------------------------------------------|
B|----2-------------0-2-3-2-0-2--2-----------0-0-2-0--------------|
G|-------2--------------------------2----------------2------------|
D|----------4--2-----------------------4--2-----------------------|
A|----------------------------------------------------------------|
E|----------------------------------------------------------------|

e|---------------0--0--0-2---------------------5-4-2-0------------|
B|-------0-3-2-0-----------2-3-0--0--0-3-2-0-----------3-2-0------|
G|--2----------------------------------------2---------------2----|
D|----------------------------------------------------------------|
A|----------------------------------------------------------------|
E|----------------------------------------------------------------|

e|----------0--0--0-2---------------------0-----------------------|
B|--0-3-2-0-----------2-3-0--0--0-3-2-0-----0-2-------------------|
G|--------------------------------------2-------2-----------------|
D|----------------------------------------------------------------|
A|----------------------------------------------------------------|
E|----------------------------------------------------------------|


Good luck
Tap to rate this tab
 
# A B C D E F G H I J K L M N O P Q R S T U V W X Y Z