Song name
# A B C D E F G H I J K L M N O P Q R S T U V W X Y Z

Jadal - Kol Ma Gool El Tobah tab

Tabbed By: Zaid Daba'een


I'm 100% sure it's right. For any suggestions, criticism, comment plz!

e|-----------------------------------------------------------------|
B|-----------------------------------------------------------------|
G|----8-9-10-11-10-11-8---8-9-10-11--------8-9-10-11-10-11-8---7---|
D|7/9-------------------9--------------7/9-------------------9---9-| x 2
A|-----------------------------------------------------------------|
E|-----------------------------------------------------------------|

e|-------------------------------------------------------------------|
B|-------------------------------------------------------------12-10-|
G|8h9p8-11-8h9p8-11-8h9p8-11-12-11--8h9p8-11-8h9p8-11-8h9p8-11-------|
D|-------------------------------------------------------------------| x 2
A|-------------------------------------------------------------------|
E|-------------------------------------------------------------------|

e|--------------------8--------10-9-8-12----|
B|----------12---------------------------12-|
G|8h9h10h11------11p8------12p9-------------|
D|------------------------------------------| x 2
A|------------------------------------------|
E|------------------------------------------|

e|-----------------------------------|
B|----------12-13----12--13-12-------|
G|8h9h10h11-------12-----------12-11-|
D|-----------------------------------|
A|-----------------------------------|
E|-----------------------------------|

JadaL Website Link: http://www.jadalband.com/
Tap to rate this tab
# A B C D E F G H I J K L M N O P Q R S T U V W X Y Z