Song name
# A B C D E F G H I J K L M N O P Q R S T U V W X Y Z

Jade - Insane tab

Song: Insane
Artist: Jade
This is Jade best song so I decided I had to tab it out for all you Jade fans. 
you want to know anything else about Jade email Cain at   r.c.fleming@xtra.co.nz     He's the man to talk 
( play twice. )
E |-------0--------------------------------------------------------------------------------|
A |-------2---------------------------------------------------3---------------------------|
D 
|-------1-----------1----------1------------2------------0---------------------------|
B |-------0--------0----------0-------------------3----------------------------3p0---|
E |-------0-----0---------0-------------0--------0-------------0h2h3p2----------|
Verse 1: Same as intro.
Verse 2: ( Strum )
E |-------0-------0-------0-------------------------------|
A |-------2-------0-------3-------------------------------|
D 
|-------1-------2-------0-------------------------------|
B |-------0-------3-------3----------------------3p0---|
E |-------0-------0-------0-------0h2h3p2----------|
Bridge: ( Strum )
E |-------0-------0-------|
A |-------0-------3-------|
D |-------0-------2-------|								Note: Play three times and on the 
G |-------2-------0-------|   last time strum last chord for twice as long.
B |-------3-------3-------|
E |-------0-------0-------|
Chorus:
E |-------0-------X-------3-------X-------------------------------0-------X-------3-------X-----------------------|
A |-------2-------3-------5-------5-------------------------------2-------3-------5-------5-------10 \ 0--------|
D |-------2-------5-------5-------7-------------------------------2-------5-------5-------7-------12 \ 0--------|
G 
\ 0--------|
B |-------0-------X-------X-------X---------------8h10p8----0-------X-------X-------X-----------------------|
E |-------0-------X-------X-------X-------------------------------0-------X-------X-------X-----------------------|
E |-------0-------X-------3-------X--------------------------------0-------X-------X-------X-------0-------|
A |-------2-------3-------5-------5--------------------------------2-------3-------2-------5-------2-------|
D |-------2-------5-------5-------7--------------------------------2-------5-------4-------7-------2-------|
G |-------1-------5-------X-------7-------7h9-------------------1-------5-------4-------7-------1-------|
B |-------0-------X-------X-------X---------------8h10p8-----0-------X-------X-------X-------0-------|
E |-------0-------X-------X-------X--------------------------------0-------X-------X-------X-------0-------|
Now play intro four times & then go into verse three strumming. ( Same as verse two. )
Bridge:
Chorus:
Solo:
E |-------0-------X-------3-------X-----------------------------------------------------------------------------------------------------------------------------------------|
A |-------2-------3-------5-------5-----------------------------------------------------------------------------------------------------------------------------------------|
D |-------2-------5-------5-------7-----------------------------------------------------------------------------------------------------------------------------------------|
G |-------1-------5-------X-------7-------7h9----------------------------------------------------------------------------------------------------------------------------|
B |-------0-------X-------X-------X---------------8h10p8 \ 
|-------0-------X-------X-------X-------------------------------------------3h5p3-------10 \ 7-------------7---10----12----12-----12 \15-----12-------|
E |------------------------------------------------------------------------------------------------------------------------------------------------------------------------|
A |------------------------------------------------------------------------------------------------------------------------------------------------------------------------|
D |------------------------------------------------------------------------------------------------------------------------------------------------------------------------|
G |------------------------------------------------------------------------------------------------------------------------------------------------------------------------|
B |-------------------------------------------------------------------------------------------------------------------------------7h8-----------------------------------|
E |---10----10 \ 12 \ 7-----7 \ 10 \ 5-----5 \ 7 \ 3-----2---0----2---3---5----3----5-----7----5----7----10---------7---10----12----12--------|
E |-----------------------------------------------------------------------------------------------------------------------------------0---------|
A |-----------------------------------------------------------------------------------------------------------------------------------2---------|
D |-----------------------------------------------------------------------------------------------------------------------------------2---------|
G |-----------------------------------------------------------------------------------------------------------------------------------1---------|
B |-----------------------------------------------------------------------------------------------------------------------------------0---------|
E |-------12 \15-----12----10----10 \ 12 \ 7-----7 \ 10 \ 5-----5 \ 7 \ 3-----2---0----2----3---5-----3---2----0---------|
The last strum is the beginning of the outro which ius just a repeat of verse one.
Tap to rate this tab
# A B C D E F G H I J K L M N O P Q R S T U V W X Y Z