Guitaretab - guitar tabs
Song name
# A B C D E F G H I J K L M N O P Q R S T U V W X Y Z

Jaded Heart - Hole In My Heart tab

Elliot Friedman - "Hole in my Heart" - Tablature.

http://www.elliotfriedman.com/

- Capo on fret 6
- Standard tuning - E-A-D-G-B-E
- h = hammer on
- p = pull off
- NOTE: Lyrics mainly for reference.

INTRO:

E|-------------------------------------------------------------------------------|
B|--0---------0h3p0-------0-----0h2p0-----0---------0h3p0-------0-----0h2p0------|
G|--------4-----------4-------4---------4-------4-----------4-------4---------4--|
D|------0---0-------0---0---0---------0-------0---0-------0---0---0---------0----|
A|--2---------------------------0-------------------------------------0----------|
E|----------------------------------------3--------------------------------------|

E|--------------------------------------------------------------------------|
B|--0---------0h3p0-------0-----0h2p0-----0---------0-----0---------0-------|
G|--------4-----------4-------4---------4-------4-------4-------4-------4---|
D|------0---0-------0---0---0---------0-------0---0---0-------0---0---0-----|
A|------------------------------0-------------------------0-----------------|
E|--0-------------------------------------3---------------------------------|

X 2


VERSE:

E|---------------------------------------------------------------------------|
B|--0---------0h3p0-------0-----0-------0---------0h3p0-------0-----0--------|
G|--------4-----------4-------4-------4-------4-----------4-------4-------4--|
D|------0---0-------0---0---0-------0-------0---0-------0---0---0-------0----|
A|--2---------------------------0--------------------------------------------|
E|--------------------------------------3---------------------------2--------|
        I      lay  a   rose    right   on      your        bed     side,

E|------------------------------------------------------------------------|
B|--0---------0h3p0-------0-----0-------0---------0-----0---------0-------|
G|--------4-----------4-------4-------4-------4-------4-------4-------4---|
D|------0---0-------0---0---0-------0-------0---0---0-------0---0---0-----|
A|------------------------------------------------------0-----------------|
E|--0---------------------------2-------3---------------------------------|
                                          but you're not there.
X 4


CHORUS:
[ Tab from: http://www.guitaretab.com/j/jaded-heart/140054.html ]
E|--------------------------------------------------------------------|
B|--3---------3-----------3-------3-----------3-----3---------3-------|
G|--------4-----------4-------4-----------4-------4-------4-------4---|
D|------0---0-------0---0---0---0-------0---0---0-------0---0---0-----|
A|--2-----------------------------------------------------------------|
E|--------------3-------------------2---------------0-----------------|
Sometimes,                  you in--spire   me  to  stay,    Some--


X 3, then:

E|------------------------------------------------------|
B|--3---------3-----------3-------3-----------3-----3---|
G|--------4-----------4-------4-----------4-------4-----|
D|------0---0-------0---0---0---0-------0---0---0-------|
A|--2---------------------------------------------------|
E|--------------3-------------------2---------------0---|
--way                   but for the hole  in    my    heart.


MIDDLE 8:

E|--------------------------------------------------------------------|
B|--3---------3-------3-----3-------3---------3-------3-----3---------|
G|--------4-------4-------4-------4-------4-------4-------4-------4---|
D|------0---0---0---0---0-------0-------0---0---0---0---0-------0-----|
A|--2-----------------------0-----------------------------------------|
E|----------------------------------3-----------------------2---------|

E|--------------------------------------------------------------------|
B|--3---------3-------3-----3-------3---------3-----3---------3-------|
G|--------4-------4-------4-------4-------4-------4-------4-------4---|
D|------0---0---0---0---0-------0-------0---0---0-------0---0---0-----|
A|--------------------------------------------------0-----------------|
E|--0-----------------------2-------3---------------------------------|

X 4


Similar in structure to "Endless Clouds" and "Don't Look Down", so if you've learned 
this should be a bit easier.

Have fun!

-Elliot Friedman
----------------
Legal:
1. Copying, distribution, display and/or performance of this work is permitted under the 
conditions:
2. No Derivative Works. You may not alter, transform, or build upon this work.
3. Non-Commercial. You may not use this work for commercial purposes.
4. Attribution. Any performances of this work must give credit to the original author - 
Friedman.
Copyright  2007. Elliot Friedman.
Related for Hole In My Heart tab