Song name
# A B C D E F G H I J K L M N O P Q R S T U V W X Y Z

Jaf - Dale Gas tab

JAF 
DALE GAS!

Referencias:
[E]:		[0 2 2 1 0 0]
[A]:		[X 0 2 2 2 0]
[Asus4]:	[X 0 2 2 3 0]
[A5]:		[X 0 2 X X X]
[C5]:		[X 3 5 5 X X]
[D5]:		[X 5 7 7 X X]
[pm]:		[Palm Mute]


Intro: E / A / Asus4


A5[pm]						A-Asus4
las 6 de la maana, pequea habitacion de hotel
A5[pm]						A-Asus4
mis ojos inyectados, se quejan de la noche de ayer
A[acople]
levanto la persiana, huelo tierra pasto y humedad
A-Asus4
el show de hace 3 horas solo es un recuerdo nada mas


A5
tengo que marcharme hacia otra ciudad
    C5			   D5
una nueva carretera que me llevara
A5		C5	D5   A5  C5-D5
dale gas, dale gas a la maquina!
A5		C5	D5   A5
dale gas, dale gas a la maquina!


A[acople]					A-Asus4
recien me estoy moviendo y una tenue llovisna gris
A[acople]				A-Asus4
me trae melancolicos recuerdos sobre ti
A[acople]
la inmensa soledad de la ruta me hace mal
A-Asus4
menos mal que por lo menos esta noche un blues, voy a tocar


A5
tengo que marcharme hacia otra ciudad
    C5			   D5
una nueva carretera que me llevara
A5		C5	D5   A5  C5-D5
dale gas, dale gas a la maquina!
A5		C5	D5   A5
dale gas, dale gas a la maquina!

yeah!

[solo] Base: [A-Asus4] A-C-D x4


A5
tengo que marcharme hacia otra ciudad
    C5			   D5
una nueva carretera que me llevara
A5	*2	C5	D5   A5  C5-D5 *1
dale gas, dale gas a la maquina!
A5	*2	C5	D5   A5  C5-D5 *2
dale gas, dale gas a la maquina!
	*3
oh yeah!
A5		C5	D5   A5  C5-D5 *2
dale gas, dale gas a la maquina!
A5		C5-D5 > *4
dale gas! hey!
A
oh yeah!

Final: A~~
1|--17~~\\--|
2|----------|
3|----------|
4|----------|
5|----------|
6|----------|


* Riff's:
		1			2		   3				4
1|-------------------------------|------------|--------------------------|-------------------------------|
2|-------13-13-13-------13-13-13-|------------|--14^12----12-------------|-------------------------------|
3|-14-14---14-----14-14---14-----|--14~~14~~--|--------14----14-12-14~~--|-------------------------------|
4|-------------------------------|------------|--------------------------|-------------------------------|
5|-------------------------------|------------|--------------------------|--------5-7^5------------------|
6|-------------------------------|------------|--------------------------|--5-7-9-------9-7-9^7\\-3/5~~--|

http://www.pistas-candentes.com.ar/
Tap to rate this tab
# A B C D E F G H I J K L M N O P Q R S T U V W X Y Z