Song name
# A B C D E F G H I J K L M N O P Q R S T U V W X Y Z

Jaga Jazzist - Low Battery tab

Tabbed by: Alain R
Email:eva1@mail.be

Tuning: standard

e|----------------------------------------------------------|
B|----------5-6----------------6-5--------------------------|
G|-------4-------------------4--------4---------------------|
D|- 5-6----------------5-6--------------2-------------------|
A|-----------------5----------------------------------------|
E|----------------------------------------------------------|

e|------------------------------------------------------------|
B|----------7-8--------------8-7------------------------------|
G|-------6-----------------6----------7-----------------------|
D|--7-8--------------7-8---------------9----------------------|
A|----------------7-------------------------------------------|
E|------------------------------------------------------------|

e|----------------------------------------------------------|
B|----------5-6----------------6-5--------------------------|
G|-------4-------------------4--------4---------------------|
D|- 5-6----------------5-6--------------2-------------------|
A|-----------------5----------------------------------------|
E|----------------------------------------------------------|

e|------------------------------------------------------------|
B|----------7-8--------------8-7------------------------------|
G|-------6-----------------6----------7------9-10-------------|
D|--7-8--------------7-8---------------9-8--------7-----------|
A|----------------7-------------------------------------------|
E|------------------------------------------------------------|

The saxophone ( x 3 )
e|------------------------------------------------------------------------|
B|------------------------------------------------------------------------|
G|-----5-4----4----------------------5-4---4-5-4-7------------------------|
D|--7-------5---------7-5-9-------7------5--------------------------------|
A|----------------7-5-----------------------------------------------------|
E|------------------------------------------------------------------------|
Tap to rate this tab
 
# A B C D E F G H I J K L M N O P Q R S T U V W X Y Z