Song name
# A B C D E F G H I J K L M N O P Q R S T U V W X Y Z

Jaga Jazzist - I Could Have Killed Him In The Sauna tab

	   I could have killed him in the sauna  JAGA JAZZIST Name
-------------------------------------------------------------------------------
Tabbed by: Alain R
Email: eva1|mail.be

Tuning:

e|------------------------------------------------------------------------------|
B|------------------------------------------------------------------------------|
G|------------------------------------------------------------------------------|
D|-----3\5------6----5--- 653----5----3\5----3-5-3-----------3\5---6-5----------|
A|3\4 ------- -3----6-----------6------------------6------6---------------------|
E|-------------------------------------------------------8----------------------|

e|-----------------------------------------------------------------------------|
B|-----------------------------------------------------------------------------|
G|-----------------------------------------------------------------------------|
D|3-5-3---5-3--------------3---------------------------------------- ----------|
A|-------------6-3-----3\4---3--------6-6-------8-10------8-10-----------------|
E|---------------------------------------------8---------8---------------------|
Tap to rate this tab
 
# A B C D E F G H I J K L M N O P Q R S T U V W X Y Z