Song name
# A B C D E F G H I J K L M N O P Q R S T U V W X Y Z

Jaga Jazzist - One-armed Bandit tab

Track 1
     E.   S  S  S  S  S  S  S  S  S     E   E   E   Q.        Q.      S  S  S  E   S  
E||---------------13-12----12-------|----------------------|------------13-----------|
B||------------15-------13----15----|--13--15--15--15------|--L------15----15--------|
G||------12-15-------------------15-|----------------------|------------------15--12-|
D||---------------------------------|----------------------|-------------------------|
A||---------------------------------|----------------------|-------------------------|
E||---------------------------------|----------------------|-------------------------|
 
 
   E   H        E     Q.      S  S  S  S  S  S     E   E   E   Q.      
-------------------|---------------------------|----------------------|
------13--------L--|--L------13-11----11-------|----------------------|
--14---------------|---------------10----12-10-|------10--12--14------|
-------------------|---------------------------|--12------------------|
-------------------|---------------------------|----------------------|
-------------------|---------------------------|----------------------|
 
 
  Q.      S  S  S  E   S     H.              E.   S  S  S  S  S  S  S  S  S  
-------------------------|----------------|---------------13-12----12-------|
-------------------------|----------------|------------15-------13----15----|
--L------14-12-10-----10-|--12------------|--L---12-15-------------------15-|
------------------12-----|----------------|---------------------------------|
-------------------------|----------------|---------------------------------|
-------------------------|----------------|---------------------------------|
 
 
---------------||
---------------||
---------------||
---------------||
---------------||
---------------||
 
 
 
 
Duration Legend
---------------
W - whole
H - half
Q - quarter
E - 8th
S - 16th
T - 32nd
X - 64th
. - note dotted
|-n-|  - n-tuplets
 
 
Tablature Legend
----------------
L - tied note
x - dead note
g - grace note
(n) - ghost note
> - accentuded note
NH - natural harmonic
AH - artificial harmonic
TH - tapped harmonic
SH - semi harmonic
PH - pitch harmonic
h - hammer on
p - pull off
b - bend
br - bendRelease
pb - preBend
pbr - preBendRelease
brb - bendReleaseBend
\n/ - tremolo bar dip
\n - tremolo bar dive
-/n - tremolo bar Release up
/n\ - tremolo bar inverted dip
/n - tremolo bar return
-\n - tremolo bar Release down
S - shift slide
s - legato slide
/ -  slide into from below or out of upwards
\ -  slide into from above or out of downwards
~ - vibrato
W - wide vibrato
tr - tril'
TP - tremolo picking
T - tapping
S - slap
P - pop
< - fade in
^ - brush up
v - brush down
Tap to rate this tab
 
# A B C D E F G H I J K L M N O P Q R S T U V W X Y Z