Song name
# A B C D E F G H I J K L M N O P Q R S T U V W X Y Z

Jagex - Autumn Voyage tab

After searching online for a tab with no success, I decided to tab 
this out myself. Here are the results of my blood sweat and tears ;P

                        ~~AUTUMN VOYAGE~~
E|----------------------------------------------------------------|
B|----------------------------------------------------------------|
G|----------------------------------------------------------------|
D|----------------------------------------------------------------|
A|--0h7-------------0h5-------------0h3-------------0h2-----------|
E|-0---------------0---------------0---------------0--------------|

E|----------------------------------------------------------------|
B|----------------------------------------------------------------|
G|----------------------------------------------------------------|
D|----------------------------------------------------------------|
A|--0h7-------------0h5-------------0h3-------------0h2-----------|
E|-0---------------0---------------0---------------0--------------|

E|----------------------------------------------------------------|
B|----------------------------------------------------------------|
G|----------------------------------------------------------------|
D|-----2-0--------------------------------------------------------|
A|---------2-------3----2-0-2-------3----2-0-------------0-2------|
E|-0-----------------------------------------3----2-3-------------|

E|----------------------------------------------------------------|
B|----------------------------------------------------------------|
G|----------------------------------------------------------------|
D|-----2-0--------------------------------------------------------|
A|---------2-------3----2-0-2-------3----2-0----------------------|
E|-0-----------------------------------------3----2-3-0-----------|

                                        -Drezell47
                                        -RS User: StikyGoinOut
Tap to rate this tab
# A B C D E F G H I J K L M N O P Q R S T U V W X Y Z