Song name
# A B C D E F G H I J K L M N O P Q R S T U V W X Y Z

Jagged Edge - Where Da Party At tab

Jagged Edge - Where Da Party At
Submitted By: rap_boy
EMail: jason_wassup@hotmail.com


E---------------------------------------------------------------------
B--9-9-11-9-9-9-11-9-9-9-11-9-9-9-11-9-9-9-11-9-9-9-11-9--------------
G---------------------------------------------------------------------
D---------------------------------------------------------------------
A---------------------------------------------------------------------
E---------------------------------------------------------------------
 
                                                                        
E---10---8------------------------------------------------------------
B-------------11---13---8----55//------99//---888//--666//---555//----
G---------------------------------------------------------------------
D---------------------------------------------------------------------
A---------------------------------------------------------------------
E---------------------------------------------------------------------

                                        
E----88//------------------------------10---8-------------------------
B-----------------------9--9--11--9-------------11--13--8-------------
G---------------------------------------------------------------------
D---------------------------------------------------------------------
A---------------------------------------------------------------------
E---------------------------------------------------------------------
Tap to rate this tab
# A B C D E F G H I J K L M N O P Q R S T U V W X Y Z