Song name
# A B C D E F G H I J K L M N O P Q R S T U V W X Y Z

Jagged Edge - Without You Apple Of My Eye tab

-------------------------------------------------------------------------------
			     SONG NAME - Band Name
-------------------------------------------------------------------------------
Tabbed by:
Email:

Tuning:

   Intro:(x4)
e|---------------------5------------------|-----------5-------------5--------|
B|---------------5------------5-----------|---------5---5---------5----------|
G|--------7----------------------------7--|--5h6-----------6-----6-----------|
D|--5-------------------------------------|------------------7---------------|
A|----------------------------------------|----------------------------------|
E|----------------------------------------|----------------------------------|

e|-----------------------|----------------------------------------------------|
B|--3---2----------------|----------------------------------------------------|
G|------------4-----2----|----------------------------------------------------|
D|-----------------------|----------------------------------------------------|
A|-----------------------|----------------------------------------------------|
E|-----------------------|----------------------------------------------------|

Main Body( throughout With Lead)
            G                     Bm7                      A
e|-----------------------|----------------------|----------------------------|
B|--0--------------------|--3-------------------|--2----------2-h-3-2--------|
G|---------0-------------|--------2-------------|-----2-----2----------2-----|
D|------------------0----|--------------4-------|--------2-------------------|
A|-----------------------|--2-------------------|--0-------------------------|
E|--3--------------------|----------------------|----------------------------|
Tap to rate this tab
# A B C D E F G H I J K L M N O P Q R S T U V W X Y Z